Take It Easy Solo

(/) Slide Up  (\) Slide Down  (h) Hammer On  (p) Pull Off  (b) Bend (r) Release (v) Vibrato


E|--------------------------------------------------------------------------------------------------
B|-------------3-----3--3--3--3/5--3----------------------------------------------------3-----------
G|--0--0--2/4-----4-------------------4\2--0--0--2/4--4--2--0--2--0-------0--0--0--2/4-----4--2-----
D|---------------------------------------------------------------------2----------------------------
A|--------------------------------------------------------------------------------------------------
E|--------------------------------------------------------------------------------------------------



E|----------------------------------------------------------------------------------------------------
B|-----------10--------------------------10--8--10/12----8--10/12--12--12--12--12--10-----------------
G|--0--2/11------11--9--7----7--7--9/10------------------------------------------------9--7--7--7-----
D|----------------------------------------------------------------------------------------------------
A|----------------------------------------------------------------------------------------------------
E|----------------------------------------------------------------------------------------------------



E|-------------------------------7--8--7---------------------14------
B|--------10--8--10b12----8--10--------------------10b12--8------15--
G|--9/10----------------------------------9b10--7--------------------
D|-------------------------------------------------------------------
A|-------------------------------------------------------------------
E|-------------------------------------------------------------------
http://www.guitartabcreator.com
Guitar Tab Creator is intended to store guitar tab created through the tool. It currently does not support in-line text editing. Any text you place in here will be lost. If you need to comment on your tab, please use the "Tab Notes" section located below.