Sex On Fire Intro

(/) Slide Up  (\) Slide Down  (h) Hammer On  (p) Pull Off  (b) Bend (r) Release (v) Vibrato

E|-----------------------------
B|-----------------------------
G|-----------------------------
D|-----------------------------
A|------16------14--14--14-----
E|--12------12-----------------



E|------------------------
B|------------------------
G|------------------------
D|------------------------
A|-----12-----11--11--11--
E|--9------9--------------



E|--9b10--9b10--9--9b10--9b10-----
B|-----------------------------9--
G|--------------------------------
D|--------------------------------
A|--------------------------------
E|--------------------------------
http://www.guitartabcreator.com
Guitar Tab Creator is intended to store guitar tab created through the tool. It currently does not support in-line text editing. Any text you place in here will be lost. If you need to comment on your tab, please use the "Tab Notes" section located below.