Holy Grail Lick (Intro)

(/) Slide Up  (\) Slide Down  (h) Hammer On  (p) Pull Off  (b) Bend (r) Release (v) Vibrato

Stave 1:

E|----------------------------------------|--
B|----------------------------------------|--
G|--------4--2--1-------------------------|--
D|-----2-----------4--2--2--2--2--2/4-----|--
A|--2-------------------------------------|--
E|----------------------------------------|--

Stave 2:

E|--------7-------------------------------|--
B|-----------10--9--7---------------------|--
G|-----9---------------9--9--9--9--9--11--|--
D|--9-------------------------------------|--
A|----------------------------------------|--
E|----------------------------------------|--

http://www.guitartabcreator.com
Guitar Tab Creator is intended to store guitar tab created through the tool. It currently does not support in-line text editing. Any text you place in here will be lost. If you need to comment on your tab, please use the "Tab Notes" section located below.