I want to break free (melodia)

(/) Slide Up  (\) Slide Down  (h) Hammer On  (p) Pull Off  (b) Bend (r) Release (v) Vibrato
E|------------------------------------------------------------------------------------
B|----------------9--9----------------10--9----------------9--10--9--10--9------------
G|---------9--11---------------9--11----------------9--11-------------------9---------
D|------9-------------------9--------------------9------------------------------------
A|------------------------------------------------------------------------------------
E|------------------------------------------------------------------------------------



E|---------------------------------------------------------------------------------------------------
B|--10--9--10--9--------------9-----------------------------------9----------10--9--10--9------------
G|----------------11--11--11-----11--9------11--11--9----------------11--------------------9--11--9--
D|-----------------------------------------------------11--9-----------------------------------------
A|---------------------------------------------------------------------------------------------------
E|---------------------------------------------------------------------------------------------------



E|-------------------------------------------------------------------------------------------------
B|--------------------9----------------9--10--9--10--9---------10--9--10--9--------------9---------
G|-----9--11--11--11------------9--11-------------------9--------------------11--11--11-----11--9--
D|--9------------------------9---------------------------------------------------------------------
A|-------------------------------------------------------------------------------------------------
E|-------------------------------------------------------------------------------------------------



E|-----------------------------------------------------------
B|------------------------9----------10--9--10--9------------
G|--11--11--9----------------11--------------------9--11--9--
D|-------------11--9-----------------------------------------
A|-----------------------------------------------------------
E|-----------------------------------------------------------



E|---------------------------------------------------------------------------------------------------------
B|-------------------------------------------------------9-----------------------------------9-------------
G|--9--8----8--8--9------11------11--11--11--11--11--11-----11--9--9------11----------9--11-----11--9------
D|--------------------------------------------------------------------11-------------------------------11--
A|---------------------------------------------------------------------------------------------------------
E|---------------------------------------------------------------------------------------------------------



E|------------9----------------------------------------------------------------------------------
B|---------9-----9-------------10--10--10--9-----------------------------------------------------
G|--9--11-----------11--9---------------------11--9--9-----------9------9----9--9--8-------------
D|--------------------------------------------------------11--9-----------------------11--9--11--
A|-----------------------------------------------------------------------------------------------
E|-----------------------------------------------------------------------------------------------



E|-------------------------------
B|--10------10--12--9------9-----
G|---------------------11-----9--
D|-------------------------------
A|-------------------------------
E|-------------------------------



E|----------------------------------------------------------
B|--9--9--9--9--9--9--9------9------10--9--10--9------------
G|-----------------------11-----------------------9--11--9--
D|----------------------------------------------------------
A|----------------------------------------------------------
E|----------------------------------------------------------
http://www.guitartabcreator.com
Guitar Tab Creator is intended to store guitar tab created through the tool. It currently does not support in-line text editing. Any text you place in here will be lost. If you need to comment on your tab, please use the "Tab Notes" section located below.