I want to break free (lia)

(/) Slide Up  (\) Slide Down  (h) Hammer On  (p) Pull Off  (b) Bend (r) Release (v) Vibrato


E|--5--7--12--
B|------------
G|------------
D|------------
A|------------
E|------------



E|--2--0------2--2--2--0--------12-
B|--3--2------3--3--3--0--------12\
G|--2--2------2--2--2--1-----------
D|--0--2------0--0--0--2-----------
A|-----0---------------2-----------
E|---------------------0-----------



E|--4------5--4------2--0------0--2--0---------------------------------------12-
B|--5------5--5------3--2------2--3--0---------------------------------------12\
G|--4------4--4------2--2------2--2--1--------------------7--7------------------
D|-------------------0--2------2--0--2--------------6--6--------6--7--9---------
A|----------------------0------0-----2--------7--7------------------------------
E|-----------------------------------0------------------------------------------
http://www.guitartabcreator.com
Guitar Tab Creator is intended to store guitar tab created through the tool. It currently does not support in-line text editing. Any text you place in here will be lost. If you need to comment on your tab, please use the "Tab Notes" section located below.