I want to break free (franca y camila)

(/) Slide Up  (\) Slide Down  (h) Hammer On  (p) Pull Off  (b) Bend (r) Release (v) Vibrato
E|----------------------------------
B|----------------------------------
G|--6--8--9------9--8------6--8--9--
D|----------------------------------
A|----------------------------------
E|----------------------------------



E|--1---------1--1--1--0--------0----0--0--
B|--2--1------2--2--2--0--------0----0--0--
G|--1--1------1--1--1--1--------8----6--1--
D|--0--1------0--0--0--2--------9----7--2--
A|-----0---------------2--------9----7--2--
E|---------------------0--------7----5--0--



E|--0------0------0------0--
B|--0------0------0------0--
G|--6------8------6------1--
D|--7------9------7------2--
A|--7------9------7------2--
E|--5------7------5------0--



E|--0--------0------0------0------0------0------0----0--0--0--0--0--0--0--0--0--0--0--0--
B|--0--------0------0------0------5------0------0----0--5--5--0--0--0--5--5--0--0--0--0--
G|--8--------6------8------6------6------3------6----8--6--6--8--6--8--6--6--8--6--8--1--
D|--9--------7------9------7------6------4------7----9--6--6--9--7--9--6--6--9--7--9--2--
A|--9--------7------9------7------4------4------7----9--4--4--9--7--9--4--4--9--7--9--2--
E|--7--------5------7------5-------------2------5----7--------7--5--7--------7--5--7--0--
http://www.guitartabcreator.com
Guitar Tab Creator is intended to store guitar tab created through the tool. It currently does not support in-line text editing. Any text you place in here will be lost. If you need to comment on your tab, please use the "Tab Notes" section located below.