OUtro New

(/) Slide Up  (\) Slide Down  (h) Hammer On  (p) Pull Off  (b) Bend (r) Release (v) Vibrato

E|--------------------------------------------|--
B|--------------------------------------------|--
G|--------------------2-----------------------|--
D|--------4-----6--------------4-----2-----4--|--
A|-----4-----4-----4--------4-----4-----4-----|--
E|--2--------------------2--------------------|--



E|-----------------------------------------------|--
B|-----------------------------------------------|--
G|--------------------6--------------7--6--------|--
D|--------7-----9--------------7-----------9--7--|--
A|-----7-----7-----7--------7-----7--------------|--
E|--5--------------------5-----------------------|--



E|-----------------------------------------------------------------------------------------------------
B|--------------------------------------------------7-----------7-----------9--7-----------------7--9--
G|--7--6--------7--6--------9--7--6-----9--7--6--------9--7--6-----9--7--6--------9--7--6--7--9--------
D|--------9--7--------9--7-----------9-----------9-----------------------------------------------------
A|-----------------------------------------------------------------------------------------------------
E|-----------------------------------------------------------------------------------------------------



E|--9---9---12--9---9---
B|--10--10--10--10--12--
G|--11--11--11--11--11--
D|--0---0---0---0---0---
A|----------------------
E|----------------------
http://www.guitartabcreator.com
Guitar Tab Creator is intended to store guitar tab created through the tool. It currently does not support in-line text editing. Any text you place in here will be lost. If you need to comment on your tab, please use the "Tab Notes" section located below.