Wizard Part 1.

(/) Slide Up  (\) Slide Down  (h) Hammer On  (p) Pull Off  (b) Bend (r) Release (v) Vibrato

Stave 1:

E|-------------------------------------------------------
B|-------------------------------------------------------
G|--------3-----------------3--5--5--5--5--5/6\5--5/6\5--
D|--5--5-----5--3-----3--5-------------------------------
A|-----------------5-------------------------------------
E|-------------------------------------------------------

Stave 2:

E|--3--5--3-------------------------------------
B|-----------5--3--5----------------------------
G|--------------------5--5--5--5--5/6\5--5/6\5--
D|----------------------------------------------
A|----------------------------------------------
E|----------------------------------------------

http://www.guitartabcreator.com
Guitar Tab Creator is intended to store guitar tab created through the tool. It currently does not support in-line text editing. Any text you place in here will be lost. If you need to comment on your tab, please use the "Tab Notes" section located below.