Eugenes Trick Bag

(/) Slide Up  (\) Slide Down  (h) Hammer On  (p) Pull Off  (b) Bend (r) Release (v) Vibrato


E|-----------------------8--12--8---------------------
B|-------------------10------------10-----------------
G|-------------5--9--------------------9--5-----------
D|----------7--------------------------------7--------
A|-------7--------------------------------------7-----
E|--5h8--------------------------------------------8--



E|-----------------------4--7--4-----------------
B|--------------------5-----------5--------------
G|--------------4--7-----------------7--4--------
D|-----------6-----------------------------6-----
A|-----5--7-----------------------------------7--
E|--7--------------------------------------------



E|--------------------------5-----------------------
B|--------------------5--8-----8--5-----------------
G|-----------------6-----------------6--------------
D|-----------5--7-----------------------7--5--------
A|--------7-----------------------------------7-----
E|--5--9-----------------------------------------9--



E|-------------------------10--13--10-----------------------
B|---------------------10--------------10-------------------
G|--------------7--10----------------------10--7------------
D|-----------7------------------------------------7---------
A|-----5--8------------------------------------------8------
E|--5---------------------------------------------------10--



E|-------------------------------------------------------
B|-------------------------9--12--9----------------------
G|------------------7--10------------10--7---------------
D|------------6--9--------------------------9--6---------
A|---------8--------------------------------------8------
E|--7--10--------------------------------------------10--



E|-----------------------------5-----8--5--12--8/16-----
B|-----------------------5--------5---------------------
G|-----------------5--------5---------------------------
D|-----------7--------7---------------------------------
A|-----7--------7---------------------------------------
E|--5-----8------------------------------------------0--
http://www.guitartabcreator.com
Guitar Tab Creator is intended to store guitar tab created through the tool. It currently does not support in-line text editing. Any text you place in here will be lost. If you need to comment on your tab, please use the "Tab Notes" section located below.