Gmajor

(/) Slide Up  (\) Slide Down  (h) Hammer On  (p) Pull Off  (b) Bend (r) Release (v) Vibrato


E|-----------------------------------------------0--2--3--------------------------------------5--7--8--
B|--------------------------------------0--1--3--------------------------------------5--7--8-----------
G|-----------------------------0--2--4-----------------------------------------5--7--------------------
D|--------------------0--2--4--------------------------------------------5--7--------------------------
A|-----------0--2--3-----------------------------------------------5--7--------------------------------
E|--0--2--3-----------------------------------------------5--7--8--------------------------------------



E|---------------------------------------------------10--12--
B|-------------------------------------------10--12----------
G|--------------------------------9--11--12------------------
D|---------------------9--10--12-----------------------------
A|----------9--10--12----------------------------------------
E|--10--12---------------------------------------------------
http://www.guitartabcreator.com
Guitar Tab Creator is intended to store guitar tab created through the tool. It currently does not support in-line text editing. Any text you place in here will be lost. If you need to comment on your tab, please use the "Tab Notes" section located below.