G blues

(/) Slide Up  (\) Slide Down  (h) Hammer On  (p) Pull Off  (b) Bend (r) Release (v) Vibrato


E|--------------------------------------1--3-----------------------------------6--8--
B|-----------------------------1--2--3-----------------------------------6--8--------
G|-----------------------0--3-----------------------------------5--6--7--------------
D|-----------------0--3-----------------------------------5--8-----------------------
A|--------1--3--4-----------------------------------5--8-----------------------------
E|--1--3--------------------------------------6--8-----------------------------------



E|-----------------------------9--10--
B|-------------------------11---------
G|---------------------10-------------
D|-------------10--11-----------------
A|---------10-------------------------
E|--9--10-----------------------------
http://www.guitartabcreator.com
Guitar Tab Creator is intended to store guitar tab created through the tool. It currently does not support in-line text editing. Any text you place in here will be lost. If you need to comment on your tab, please use the "Tab Notes" section located below.