Dminor

(/) Slide Up  (\) Slide Down  (h) Hammer On  (p) Pull Off  (b) Bend (r) Release (v) Vibrato


E|-----------------------------------------------------------------------------------5--6------------
B|--------------------------------------1--2--------------------------------5--6--8------------------
G|-----------------------------0--2--3--------------------------------6--7---------------------------
D|--------------------0--2--3--------------------------------5--7--8---------------------------------
A|-----------0--1--4--------------------------------5--7--8------------------------------------------
E|--0--1--3-----------------------------------5--6-----------------------------------------9--10-----



E|-------------------------------------9--10--12--
B|-----------------------------10--11-------------
G|------------------9--10--12---------------------
D|----------11--12--------------------------------
A|--10--12----------------------------------------
E|------------------------------------------------
http://www.guitartabcreator.com
Guitar Tab Creator is intended to store guitar tab created through the tool. It currently does not support in-line text editing. Any text you place in here will be lost. If you need to comment on your tab, please use the "Tab Notes" section located below.