And I Thought I Was Wierd (Intro)

(/) Slide Up  (\) Slide Down  (h) Hammer On  (p) Pull Off  (b) Bend (r) Release (v) Vibrato

Strumming (Lead)
E|-
B|-
G|-
D|-10-10-10-10-10-10-10-10-/-9-9-9-9-9-9-9-9-/-7-7-7-7-7-7-7-7-/-5-5-5-5-5-5-5-5-\-
A|-x--x--x--x--x--x--x--x--/-x-x-x-x-x-x-x-x-/-x-x-x-x-x-x-x-x-/-x-x-x-x-x-x-x-x-\-
E|-8--8--8--8--8--8--8--8--/-7-7-7-7-7-7-7-7-/-5-5-5-5-5-5-5-5-/-3-3-3-3-3-3-3-3-\-



E|-
B|-
G|-|-10-10-10-10-10-10-10-10-/-9-9-9-9-9-9-9-9-/-7-7-7-7-7-7-7-7-/-5-5-5-5-5-5-5-5|x2
D|-|-x--x--x--x--x--x--x--x--/-x-x-x-x-x-x-x-x-/-x-x-x-x-x-x-x-x-/-x-x-x-x-x-x-x-x|
A|-|-8--8--8--8--8--8--8--8--/-7-7-7-7-7-7-7-7-/-5-5-5-5-5-5-5-5-/-3-3-3-3-3-3-3-3|
E|-|-0--0--0--0--0--0--0--0--/-0-0-0-0-0-0-0-0-/-0-0-0-0-0-0-0-0-/-0-0-0-0-0-0-0-0|



E|-
B|-
G|-6------6-9-6-4-6------6-9-6-4
D|--7-6-7----------7-6-7--------
A|-------8--------------8-------
E|------------------------------
http://www.guitartabcreator.com
Guitar Tab Creator is intended to store guitar tab created through the tool. It currently does not support in-line text editing. Any text you place in here will be lost. If you need to comment on your tab, please use the "Tab Notes" section located below.