untiteld

(/) Slide Up  (\) Slide Down  (h) Hammer On  (p) Pull Off  (b) Bend (r) Release (v) Vibrato


E|------------------------------------------------------------------
B|------------------------------------------------------------------
G|------------------------------------------------------------------
D|----------------7--5b6-------------------------5--7--7----5--5h7--
A|--2/5--7--5--7------------7------2/5--7--5--7---------------------
E|------------------------------------------------------------------



E|------------------------------------------------------------------------
B|------------------------------------------------------------------------
G|---------------------------------------------------------------------9--
D|----------------7--5b6-------------------------5--7--7--7--7--7/9\7-----
A|--2/5--7--5--7----------7--------2/5--7--5--7---------------------------
E|------------------------------------------------------------------------



E|----------------------------------------------------------------------
B|---------------------12-10b11---8------------------10-12-12---10b11-8-
G|-9-9-9-12b13-9-12-12--------------9-9-9-12b13-9-12--------------------
D|----------------------------------------------------------------------
A|----------------------------------------------------------------------
E|----------------------------------------------------------------------



E|-
B|-
G|-
D|-
A|-
E|-
http://www.guitartabcreator.com
Guitar Tab Creator is intended to store guitar tab created through the tool. It currently does not support in-line text editing. Any text you place in here will be lost. If you need to comment on your tab, please use the "Tab Notes" section located below.