demopart1

(/) Slide Up  (\) Slide Down  (h) Hammer On  (p) Pull Off  (b) Bend (r) Release (v) Vibrato


E|-------------------------------------
B|-------------------------------------
G|-------------------------------------
D|-------------------------------------
A|-----3--------3-1--------3-------3-1-
E|-3--------3----------3-------3-------



E|------------------------------------------------
B|------------------------------------------------
G|------------------------------------------------
D|------------------------------------------------
A|------------------------------------------------
E|-15---13----13h15---13----15---13----13h15---13-



E|------------------------
B|------------------------
G|------------------------
D|------------------------
A|------------------------
E|-15-15-15-15--13---3/15-



E|----------------------------------------------------------------------
B|----------------------------------------------------------------------
G|------------------------12---12------12-15-15/17\15-15-12----12h15-12-
D|--------------------15--0----15---15----------------------15----------
A|--------------13-15---------------------------------------------------
E|-15--15-13-15---------------------------------------------------------



E|--------------------------------------------
B|--------------------------------------------
G|-----------------------------5----------5-3-
D|-----------------------5-----5-----5----5-3-
A|-----------------------5-----3-----5----3-1-
E|-----------------------3-----------3--------



E|---------------------------
B|---------------------------
G|---------------------------
D|---------------------------
A|---------------------------
E|-15-15-15-15--13---3/15----



E|---------------------------------------------------------------
B|------------------------------------------------------15-18\14-
G|-----------------------------12-----12-------12-15-17----------
D|-----------------------------0------15----15-------------------
A|-------------13--13h15p13--------------------------------------
E|-15-15-13-15---------------------------------------------------



E|---------------------------------------------
B|---------------------------------------------
G|---------------------------------------------
D|---------------------------------------------
A|---------------------------------------------
E|-15-15-15-15--13---3/15--15-15--13-13--13b14-



E|------------------------------------|------------------------------------------------------
B|------------------------------------|------------------------------------------------------
G|------------------------------------|------------------------------------------------------
D|------------------------------------|------------------------------------------------------
A|--15----13------15--15----13----10--|----13b14--10-----------------------------------------
E|--15----13------15--15----13----10--|---------------13------13/15------13------15------13--



E|--
B|--
G|--
D|--
A|--
E|--
http://www.guitartabcreator.com
Guitar Tab Creator is intended to store guitar tab created through the tool. It currently does not support in-line text editing. Any text you place in here will be lost. If you need to comment on your tab, please use the "Tab Notes" section located below.