black raindrop

(/) Slide Up  (\) Slide Down  (h) Hammer On  (p) Pull Off  (b) Bend (r) Release (v) Vibrato

E|--------------------------------------------------
B|--------------------------------------------------
G|--------------------------------------------------
D|--------------------------------------------------
A|--11--11--11--14--11--13--13--11--13--13--11--14--
E|--0---0---0---0---0---0---0---0---0---0---0---0---



E|----------------------------------------
B|----------------------------------------
G|----------------------------------------
D|----------------------------------------
A|--14--11--13--13--11--13--13--11--7-----
E|--0---0---0---0---0---0---0---0---5--0--



E|-----------
B|-----------
G|-----------
D|-----------
A|-----------
E|--2--1--0--



E|-----------------------------------------------------------------
B|-----------------------------------------------------------------
G|-----------------------------------------------------------------
D|-----------------------------------------------------------------
A|-----------------------------------------------------------------
E|-2-2-2-2-2-2-2-2-1-1-1-1-1-1-1-1-0-0-0-0-0-0-0-0-0-0-0-0-0-0-0-0-



E|-----------------------
B|-----------------------
G|-----------------------
D|-----------------------
A|-----------------------
E|-2-1-0-0-0-0-0-0-0-0-0-



E|-----------
B|-----------
G|-----------
D|-----------
A|-----------
E|--2--1--0--



E|-----------------
B|-----------------
G|--0--------------
D|--------2-----2--
A|-----2-----------
E|-----------0-----



E|--------------0--0--0--0--0--0--
B|--0--0--0--0--1--1--0--1--1--0--
G|--1--1--1--1--0--0--0--2--2--0--
D|--2--2--2--2--2--2--0--2--2--0--
A|--2--2--2--2--3--3--0--0--0--0--
E|--0--0--0--0--------0--------0--



E|--0--0--0--0--0-----------------
B|--1--1--1--1--0-----------------
G|--0--0--0--0--0--0--0--0--------
D|--2--2--2--2--0--2--2--2--1-----
A|--3--3--3--3--0--2--2--2--1-----
E|--------------0--0--0--0-----0--



E|-----------------------------------
B|-----------------------------------
G|-----------------------------------
D|-----------------------------------
A|-----------------------------------
E|--2--1--0--0--0--0--0--0--0--0--0--



E|------------------------------------------------------------------
B|------------------------------------------------------------------
G|------------------------------------------------------------------
D|------------------------------------------------------------------
A|-4-4-4-4-4-4-4-4-3-3-3-3-3-3-3-3--2-2-2-2-2-2-2-2-2-2-2-2-2-2-2-2-
E|-2-2-2-2-2-2-2-2-1-1-1-1-1-1-1-1--0-0-0-0-0-0-0-0-0-0-0-0-0-0-0-0-



E|----------------------------------------------
B|----------------------------------------------
G|----------------------------------------------
D|-----8-7-7---------------9-8-7--------9-8-7---
A|-8h9---0-0-8p7-9---7-9-8--------7-9-8-------7-
E|---------0------------------------------------



E|-------------------------------------------------
B|-------------------------------------------------
G|-------------------------------------------------
D|-----8-7-7----------------9-8-7--------9-8-8h9-8-
A|-8h9---0-0-8p7-9-7--7-9-8--------7-9-8-----------
E|-------------------------------------------------



E|--------------------------------------------------------------------------
B|--------------------------------------------------------------------------
G|-----------------9-9b7-7h9-7-9-7------------------------------------------
D|-9-9-9-8-8-8-8-0-----------------8\7-7-5-5-5h7-5-3-3-3h5-3-2-3b4-2--------
A|-------------------------------------------------------------------3-0----
E|-----------------------------------------------------------------------3--



E|--------------------------------------
B|--------------------------------------
G|--------------------------------------
D|--------------------------------------
A|--------------------------------------
E|--2--1--0--0--0--0--0--0--0--0--0--0--
http://www.guitartabcreator.com
Guitar Tab Creator is intended to store guitar tab created through the tool. It currently does not support in-line text editing. Any text you place in here will be lost. If you need to comment on your tab, please use the "Tab Notes" section located below.