Don't Take my Beer - Black Drawning Chalks

(/) Slide Up  (\) Slide Down  (h) Hammer On  (p) Pull Off  (b) Bend (r) Release (v) Vibrato


E|-----------------------------------------------
B|-----------------------------------------------
G|-----3--5--3-----3--3-----3--5--3--5--7--5--3--
D|--5-----------5--------3-----------------------
A|-----------------------------------------------
E|-----------------------------------------------



E|-----
B|-----
G|-----
D|--6--
A|-----
E|-----



E|--------
B|--------
G|--7--5--
D|--------
A|--5--3--
E|--------



E|---------------
B|---------------
G|-----6--5v-----
D|---------------
A|--3------------
E|---------------
http://www.guitartabcreator.com
Guitar Tab Creator is intended to store guitar tab created through the tool. It currently does not support in-line text editing. Any text you place in here will be lost. If you need to comment on your tab, please use the "Tab Notes" section located below.