diary of jane

(/) Slide Up  (\) Slide Down  (h) Hammer On  (p) Pull Off  (b) Bend (r) Release (v) Vibrato

E|------------------------------------------------------------------------
B|-------------------------------------------------------9--9-------------
G|-----10-----10-----10-----10-----11--11--10-----10-----------11-----10--
D|--8------8------8------8------8--------------8------8------------8------
A|------------------------------------------------------------------------
E|------------------------------------------------------------------------



E|------------------------------------
B|-------------------9--9-------------
G|-----10-----10-----------11-----10--
D|--8------8------8------------8------
A|------------------------------------
E|------------------------------------



E|---------------------------------
B|---------------------------------
G|-----10-----10-----10--10b11r10--
D|--8------8------8----------------
A|---------------------------------
E|---------------------------------



E|-------------------------------------------------------------------
B|-------------------9--9--------------------------------------------
G|-----10-----10-----------11-----10-----10-----10-------------------
D|--8------8------8------------8------8------8------8--10--10b11r10--
A|-------------------------------------------------------------------
E|-------------------------------------------------------------------



E|--6-----6---------6-----6-------------
B|-----6-----6---------6-----6----------
G|--------------------------------------
D|------------------------------1----4--
A|------------------------------1----4--
E|------------------------------1----4--



E|---------------------------------------------------------------------
B|--14--13--14--13--14/16--14--13--16--16--16--18--18--18--16--16--16--
G|---------------------------------------------------------------------
D|---------------------------------------------------------------------
A|---------------------------------------------------------------------
E|---------------------------------------------------------------------



E|--------------13----------14--13--
B|--11--13--14------11--13----------
G|----------------------------------
D|----------------------------------
A|----------------------------------
E|----------------------------------



E|--------------------------------------------------------------------------------
B|--11--13-----------------------------------11--13-----------------11-----11-----
G|----------13-------------13------------------------13--8--10--13--13b15--13b15--
D|--------------12h13----------13--12---------------------------------------------
A|---------------------13--------------13-----------------------------------------
E|--------------------------------------------------------------------------------



E|-----------------------------------------------------------------
B|--------------11--11--11--11--13---------------------------------
G|--10--10--10--10--10--10----------13-------------13--------------
D|--------------------------------------12h13----------13--12------
A|---------------------------------------------13--------------13--
E|-----------------------------------------------------------------



E|--------------------14--13--
B|--14--14--14--16------------
G|----------------------------
D|----------------------------
A|----------------------------
E|----------------------------
http://www.guitartabcreator.com
Guitar Tab Creator is intended to store guitar tab created through the tool. It currently does not support in-line text editing. Any text you place in here will be lost. If you need to comment on your tab, please use the "Tab Notes" section located below.