Lung song 26

(/) Slide Up  (\) Slide Down  (h) Hammer On  (p) Pull Off  (b) Bend (r) Release (v) Vibrato
E|-------------------------------------------------------------------------------
B|-------------------------------------------------------------------------------
G|-------------------------------------------------------------------------------
D|-------------------------------------------------------------------------------
A|-------------------------------------------------------------------------------
E|-1-1-1/3-3-0-0/8-8p0-0h6-6/8-8----1-1-1/3-3p0-0/8-8p0-0h6-6/8-3----------------



E|---------------------------
B|---------------------------
G|---------------------------
D|-1-1-1-3-0--6-0-6/8-8-8----
A|-1-1-1-3-0--6-0-6-8-8-8----
E|-1-1-1/3-0--6-0-6-8-8-8----



E|---------------------------------------------
B|---------------------------------------------
G|---------------------------------------------
D|---------------------------------------------
A|---------------------------------------------
E|-0-0-3p0--0-0-3p0--0-0-3p0--0-0-3p0--0-0-3p0-



E|------------------------------------------------------------------------------------
B|------------------------------------------------------------------------------------
G|------------------------------------------------------------------------------------
D|------------------------------------------------------------------------------------
A|-3-3-3-3--3-3-3-2----------------------------3-3-3-3--3-3-2-------------------------
E|-3-3-3-3--3-3-3-2---3b0-2-3b0-2--2-2-2-3-----3-3-3-3--3-3-2---3b0--2-3b0--2-2-2-3---



E|----------------------------------------------------------------------------------
B|----------------------------------------------------------------------------------
G|----------------------------------------------------------------------------------
D|----------------------------------------------------------------------------------
A|---------3-3-3-2---------------------------1-1-1-1--1-1-1-0---1-1-1-1-1-1-1-1-1-1-
E|-1-2-2-3-3-3-3-2---3b0-2-3b0-2--2-2-2-3----1-1-1-1--1-1-1-0---3-3-3-3-3-3-2-2-2-2-



E|------------------------------------------------------------------------------
B|------------------------------------------------------------------------------
G|------------------------------------------------------------------------------
D|----------------------------------------------------------------------5h8-5h8-
A|-1-1-1-1--1-1-1---1-1-1-1-1-1-1-1-1---5h8-5h8-5h8-5h8-5h8-5h8-5h8-5h8---------
E|-1-1-1-1--1-1-1---3-3-3-3-3-3-2-2-2---0---------------------------------------



E|-------------------------
B|-------------------------
G|-------------------------
D|-5h8-5h8-5h7-5h7-5h7-5h7-
A|-------------------------
E|-------------------------



E|-------------------------------------------------------------------------
B|-------------------------------------------------------------------------
G|-------------------------------------------------------------------------
D|-8----------------------------------8-----8------------------------------
A|-8------0-0-1/3-3p0-0h6-6p0-0-6-8-8-8-----8----0-0-1-3-3p0-0h6-6p0-0-6/--
E|-8------0-0-1-3-3-0-0-6-6-0-0-6/8-8-8-----8----0-0-1/3-3-0-0-6-6-0-0-6---



E|--------------------------------------------
B|--------------------------------------------
G|--------------------------------------------
D|-----8--------------------------------------
A|-8-8-8--------------------------------------
E|-8-8-8------0-0-3p0-0-0-3p0-0-0-3p0-0-0-3p0-



E|------------------------------------------------------------------------------------------------
B|------------------------------------------------------------------------------------------------
G|------------------------------------------------------------------------------------------------
D|--6-0----0--0--0--0--6p0--0h6--6--6--0----0--6----0--5----3p0--0--0--1--1--3--------2--2/3-3/1--
A|--6-0----0--0--0--0--6-0--0-6--6--6--0----0--6----0--5----3-0--0--0--1--1--3--------2--2-3-3-1--
E|--6p0----0--0--0--0--6-0--0-6--6--6--0----0--6----0--5----3-0--0--0--1--1--3--------2--2-3/3-1--



E|-------------------------------------------------------------------------------------------------
B|-------------------------------------------------------------------------------------------------
G|-------------------------------------------------------------------------------------------------
D|--6p0----0--0--0--0--6p0--0h6--6--6--0----0--6----0--5----3p0--0--0--1--1--3--------2--2/3--3\1--
A|--6-0----0--0--0--0--6-0--0-6--6--6--0----0--6----0--5----3-0--0--0--1--1--3--------2--2-3--3-1--
E|--6-0----0--0--0--0--6-0--0-6--6--6--0----0--6----0--5----3-0--0--0--1--1--3--------2--2-3--3-1--



E|------------------------------------------------------------------------------------------------
B|------------------------------------------------------------------------------------------------
G|------------------------------------------------------------------------------------------------
D|--6p0----0--0--0--0--6p0--0h6--6--6--0----0----6--6-8--8\5----3p0--0--1--1--3------2--2/3--3\1--
A|--6-0----0--0--0--0--6-0--0-6--6--6--0----0----6--6-8--8-5----3-0--0--1--1--3------2--2-3--3-1--
E|--6-0----0--0--0--0--6-0--0-6--6--6--0----0----6--6/8--8-5----3-0--0--1--1--3------2--2-3--3-1--



E|---------------
B|---------------
G|---------------
D|--0--2/3--3\2--
A|--0--2-3--3-2--
E|--0--2-3--3-2--



E|------------------------------------------------
B|------------------------------------------------
G|------------------------------------------------
D|--x--x--x--x--6/8--8--8--0--0--0--0--6/8--8--8--
A|--x--x--x--x--6-8--8--8--0--0--0--0--6-8--8--8--
E|--x--x--x--x--6-8--8--8--0--0--0--0--6-8--8--8--
http://www.guitartabcreator.com
Guitar Tab Creator is intended to store guitar tab created through the tool. It currently does not support in-line text editing. Any text you place in here will be lost. If you need to comment on your tab, please use the "Tab Notes" section located below.