Pirates of the Caribbean

(/) Slide Up  (\) Slide Down  (h) Hammer On  (p) Pull Off  (b) Bend (r) Release (v) Vibrato


E|--------------------------------------------------------------
B|--------------------------------------------------------------
G|-------------------------------------12-------12--------------
D|-12-12-12-------12-12-12-14-15-15-15----14-14-----12-------12-
A|----------12-15--------------------------------------15-15----
E|--------------------------------------------------------------



E|-----------------------------------------------------------------------------------------------
B|-----------------------------------------------------------------------------------------------
G|----------------------------12-----------------------------------12-12-12-14-15-15-14-12-14----
D|-------12-12-12-14-15-15-15----14-14-12----12--------12-12-12-------------------------------12-
A|-12-15----------------------------------15-----12-15----------15-------------------------------
E|-----------------------------------------------------------------------------------------------



E|-------------------------------------------
B|-------------------------------------------
G|-------------12-14-------------------------
D|-12-14-15-15-------12-12-15-14-14-15-12-14-
A|-------------------------------------------
E|-------------------------------------------



E|----------------12-13-13-13-15-12-12-------------
B|----13-15-15-15----------------------15-13-13-15-
G|-14----------------------------------------------
D|-------------------------------------------------
A|-------------------------------------------------
E|-------------------------------------------------



E|----------------12-13-13-13-15-12-12--------------------------
B|----13-15-15-15----------------------15-13-15-----13-15-15-15-
G|-14--------------------------------------------14-------------
D|--------------------------------------------------------------
A|--------------------------------------------------------------
E|--------------------------------------------------------------



E|-13-15-15-15-17-18-18-17-15-17--------12-13-13-15-17-------13-
B|-------------------------------15--15----------------15-15----
G|--------------------------------------------------------------
D|--------------------------------------------------------------
A|--------------------------------------------------------------
E|--------------------------------------------------------------



E|-12-12-------------12-13-13-13-15-17-13-13-------
B|-------15-13-15-15-------------------------15----
G|----------------------------------------------14-
D|-------------------------------------------------
A|-------------------------------------------------
E|-------------------------------------------------
http://www.guitartabcreator.com
Guitar Tab Creator is intended to store guitar tab created through the tool. It currently does not support in-line text editing. Any text you place in here will be lost. If you need to comment on your tab, please use the "Tab Notes" section located below.