Why Can't I Rythm

(/) Slide Up  (\) Slide Down  (h) Hammer On  (p) Pull Off  (b) Bend (r) Release (v) Vibrato


E|--------------------------|--------------------------|--------------------------|--
B|--------------------------|--------------------------|--------------------------|--
G|--2--2--2--2--2--2--2--2--|--------------------------|--------------------------|--
D|--2--2--2--2--2--2--2--2--|--2--2--2--2--2--2--2--2--|--4--4--4--4--4--4--4--4--|--
A|--0--0--0--0--0--0--0--0--|--2--2--2--2--2--2--2--2--|--4--4--4--4--4--4--4--4--|--
E|--------------------------|--0--0--0--0--0--0--0--0--|--2--2--2--2--2--2--2--2--|--



E|--------------------------|--|--------|--------|--------|--------|--|--
B|--------------------------|--|--------|--------|--------|--------|--|--
G|--7--7--7--7--7--7--7--7--|--|--2--2--|--------|--------|--7--7--|--|--
D|--7--7--7--7--7--7--7--7--|--|--2--2--|--2--2--|--4--4--|--7--7--|--|--
A|--5--5--5--5--5--5--5--5--|--|--0--0--|--2--2--|--4--4--|--5--5--|--|--
E|--------------------------|--|--------|--0--0--|--2--2--|--------|--|--



E|--------------------------|--------------------------|--------------------------|--
B|--------------------------|--------------------------|--------------------------|--
G|--2--2--2--2--2--2--2--2--|--------------------------|--------------------------|--
D|--2--2--2--2--2--2--2--2--|--3--3--3--3--3--3--3--3--|--4--4--4--4--4--4--4--4--|--
A|--0--0--0--0--0--0--0--0--|--3--3--3--3--3--3--3--3--|--4--4--4--4--4--4--4--4--|--
E|--------------------------|--1--1--1--1--1--1--1--1--|--2--2--2--2--2--2--2--2--|--



E|--------------------------|--|--------------------------|-----------------------------|--
B|--------------------------|--|--------------------------|-----------------------------|--
G|--7--7--7--7--7--7--7--7--|--|--7--7--7--7--7--7--7--7--|--7--7--7--7--7--7--7-----2--|--
D|--7--7--7--7--7--7--7--7--|--|--7--7--7--7--7--7--7--7--|--7--7--7--7--7--7--7-----2--|--
A|--5--5--5--5--5--5--5--5--|--|--5--5--5--5--5--5--5--5--|--5--5--5--5--5--5--5-----0--|--
E|--------------------------|--|--------------------------|-----------------------0-----|--



E|-------5--|----------|-------5-----|-------------------------------|-----------5--|--
B|----------|--5----9--|--7-------7--|-----6--8--10--8--6--5h6p5-----|--------------|--
G|----------|----------|-------------|--7-------------------------7--|--6h7p6-------|--
D|--7-------|----------|-------------|-------------------------------|--------------|--
A|----------|----------|-------------|-------------------------------|--------------|--
E|----------|----------|-------------|-------------------------------|--------------|--



E|----------|-------5-----|------------------------------|--
B|--5----9--|--7-------7--|-----6--8h10--8--6--5h6p5-----|--
G|----------|-------------|--7------------------------7--|--
D|----------|-------------|------------------------------|--
A|----------|-------------|------------------------------|--
E|----------|-------------|------------------------------|--



E|--------------------------|--------------------------|--------------------------|--
B|--------------------------|--------------------------|--------------------------|--
G|--------------------------|--------------------------|--------------------------|--
D|--------------------------|--------------------------|--------------------------|--
A|--3--3--3--3--3--3--5--5--|--2--2--2--2--2--2--2--2--|--0--0--0--0--0--0--0--0--|--
E|--5--5--5--5--5--5--7--7--|--3--3--3--3--3--3--3--3--|--1--1--1--1--1--1--1--1--|--



E|--------------------------|--|--|--|--
B|--------------------------|--|--|--|--
G|--------------------------|--|--|--|--
D|--3--3--3--3--3--3--3--3--|--|--|--|--
A|--5--5--5--5--5--5--5--5--|--|--|--|--
E|--------------------------|--|--|--|--
http://www.guitartabcreator.com
Guitar Tab Creator is intended to store guitar tab created through the tool. It currently does not support in-line text editing. Any text you place in here will be lost. If you need to comment on your tab, please use the "Tab Notes" section located below.