Magic Fries Rhythm

(/) Slide Up  (\) Slide Down  (h) Hammer On  (p) Pull Off  (b) Bend (r) Release (v) Vibrato


E|----------------------------------|--|--|----------------------------------|--|--
B|----------------------------------|--|--|----------------------------------|--|--
G|----------------------------------|--|--|------------5----5----5--5--5--5--|--|--
D|--7----6----3----3----3--3--3--3--|--|--|--5----5----5----5----5--5--5--5--|--|--
A|--7----6----3----3----3--3--3--3--|--|--|--5----5----3----3----3--3--3--3--|--|--
E|--5----4----1----1----1--1--1--1--|--|--|--3----3--------------------------|--|--



E|--------------------------|--|--|--------------------------|--|--
B|--------------------------|--|--|--------------------------|--|--
G|--------------------------|--|--|-----------5--5--5--5--5--|--|--
D|--7--6--6--3--3--3--3--3--|--|--|--5--5--5--5--5--5--5--5--|--|--
A|--7--6--6--3--3--3--3--3--|--|--|--5--5--5--3--3--3--3--3--|--|--
E|--5--4--4--1--1--1--1--1--|--|--|--3--3--3-----------------|--|--



E|-----------------------------|---------------------------|--|--|---------------------------------|--
B|-----------------------------|---------------------------|--|--|---------------------------------|--
G|--10--10--10--9--9--9--9--9--|---------------------------|--|--|---------------------------------|--
D|--10--10--10--9--9--9--9--9--|--7--7--7--10--10--10--10--|--|--|--7----7--7--7----7--7--7--7--7--|--
A|--8---8---8---7--7--7--7--7--|--7--7--7--10--10--10--10--|--|--|--7----7--7--7----7--7--7--7--7--|--
E|-----------------------------|--5--5--5--8---8---8---8---|--|--|--5----5--5--5----5--5--5--5--5--|--



E|--------------------------------------|----------------------------------|--|--|---------------|--
B|--------------------------------------|----------------------------------|--|--|---------------|--
G|--------------------------------------|------------5----5----5--5--5--5--|--|--|------------5--|--
D|--3----3--3--3----3--3----3--3--3--3--|--5----5----5----5----5--5--5--5--|--|--|--5----5----5--|--
A|--3----3--3--3----3--3----3--3--3--3--|--5----5----3----3----3--3--3--3--|--|--|--5----5----3--|--
E|--1----1--1--1----1--1----1--1--1--1--|--3----3--------------------------|--|--|--3----3-------|--



E|--------------------------|--|--------------------------|--------------------------|--|--
B|--------------------------|--|--------------------------|--------------------------|--|--
G|--------------------------|--|--------------------------|--------------------------|--|--
D|--9--9--9--9--9--9--9--9--|--|--2--2--2--2--2--3--3--3--|--2--2--2--2--2--6--6--6--|--|--
A|--9--9--9--9--9--9--9--9--|--|--2--2--2--2--2--3--3--3--|--2--2--2--2--2--6--6--6--|--|--
E|--7--7--7--7--7--7--7--7--|--|--0--0--0--0--0--1--1--1--|--0--0--0--0--0--4--4--4--|--|--



E|--12----12--12--12--|--10----10--10--10--|--9---|--
B|--10----10--10--10--|--9-----9---9---9---|--10--|--
G|--10----10--10--10--|--10----10--10--10--|--9---|--
D|--------------------|--------------------|------|--
A|--------------------|--------------------|------|--
E|--------------------|--------------------|------|--
http://www.guitartabcreator.com
Guitar Tab Creator is intended to store guitar tab created through the tool. It currently does not support in-line text editing. Any text you place in here will be lost. If you need to comment on your tab, please use the "Tab Notes" section located below.