Faded

(/) Slide Up  (\) Slide Down  (h) Hammer On  (p) Pull Off  (b) Bend (r) Release (v) Vibrato

E|----------------------------------|---------------------------------|--------------------------|--
B|----------------------------------|---------------------------------|--------------------------|--
G|----------------------------------|---------------------------------|--------------------------|--
D|--9---9---9---9---9---9---9---9---|--9---9---9---9---9---9---9---9--|--9--9--9--9--9--9--9--7--|--
A|--10--10--10--10--10--10--10--10--|--10--10--10--10--10--10--10--9--|--9--9--9--9--9--9--9--9--|--
E|----------------------------------|---------------------------------|--------------------------|--



E|--------------------------|--|--|--------------------------|--
B|--------------------------|--|--|--------------------------|--
G|--------------------------|--|--|--------------------------|--
D|--7--7--7--7--7--7--7/9---|--|--|--7--7--7--7--7--7--7--7--|--
A|--9--9--9--9--9--9--9-10--|--|--|--9--9--9--9--9--9--9--9--|--
E|--------------------------|--|--|--------------------------|--



E|-------------------------------------------------------------|--------------------------|--
B|-------------------------------------------------------------|--------------------------|--
G|-------------------------------------------------------------|--------------------------|--
D|----------9----------9----------9----------9----------9------|--------9--------9-----9--|--
A|--10--10-----10--10-----10--10-----10--10-----10--10-----10--|--9--9-----9--9-----9-----|--
E|-------------------------------------------------------------|--------------------------|--



E|--------------------------|--|--|--|--------------------------|--------------------------|-----
B|--------------------------|--|--|--|--------------------------|--------------------------|-----
G|--------------------------|--|--|--|--------------------------|--------------------------|-----
D|--------7--------7-----7--|--|--|--|--6--6--6--6--6--6--6--6--|--6--6--6--6--6--6--6--5--|-----
A|--9--9-----9--9-----9-----|--|--|--|--7--7--7--7--7--7--7--7--|--7--7--7--7--7--7--7--7--|-----
E|--------------------------|--|--|--|--------------------------|--------------------------|-----



E|--------------------------|--------------------------|--|--------------------------|--|--
B|--------------------------|--------------------------|--|--------------------------|--|--
G|--------------------------|--------------------------|--|--------------------------|--|--
D|--5--5--5--5--5--5--5--7--|--7--7--7--7--7--7--7--6--|--|--7--7--7--7--7--7--7/9---|--|--
A|--7--7--7--7--7--7--7--7--|--7--7--7--7--7--7--7--7--|--|--7--7--7--7--7--7--7-10--|--|--
E|--------------------------|--------------------------|--|--------------------------|--|--



E|----------------------------------|----------------------------------|------------------
B|----------------------------------|----------------------------------|------------------
G|----------------------------------|----------------------------------|------------------
D|--9---9---9---9---9---9---9---11--|--11--11--11--11--11--11--11--11--|--12--12--12--12--
A|--10--10--10--10--10--10--10--12--|--12--12--12--12--12--12--12--12--|--9---9---9---9---
E|----------------------------------|----------------------------------|------------------



E|------------------|----------------------------------|--|--
B|------------------|----------------------------------|--|--
G|------------------|----------------------------------|--|--
D|--12--12--12--11--|--11--11--11--12--12--12--11--11--|--|--
A|--9---9---9---12--|--12--12--12--12--12--12--12--12--|--|--
E|------------------|----------------------------------|--|--
http://www.guitartabcreator.com
Guitar Tab Creator is intended to store guitar tab created through the tool. It currently does not support in-line text editing. Any text you place in here will be lost. If you need to comment on your tab, please use the "Tab Notes" section located below.