Ljudet Innan

(/) Slide Up  (\) Slide Down  (h) Hammer On  (p) Pull Off  (b) Bend (r) Release (v) Vibrato
E|-----------------------------------------------------------------------|---------------------------
B|-----------------------------------------------------------12----------|---------------------------
G|--14r13--11--11h13--11h13--11v----------11------13--13/14------13\11v--|---------11--13--13/14-----
D|----------------------------------7/11------11-------------------------|-----11--------------------
A|-----------------------------------------------------------------------|--9------------------------
E|-----------------------------------------------------------------------|---------------------------



E|-----------------------------------------|-------------------------------------|--
B|-----------------------------------------|-------------------------------------|--
G|--11-------------------------------------|--14p13--11--11h13--11h13------------|--
D|------12h14--12\9\7--9p7--9/10\9--7------|---------------------------12v--11v--|--
A|-------------------------------------9v--|-------------------------------------|--
E|-----------------------------------------|-------------------------------------|--



E|---------------------------------------------------------|-----
B|---------------------------------------------------------|-----
G|---------16------18--18/19--18h19p18--16-------------16--|-----
D|--14/16------16---------------------------16--18/19------|-----
A|---------------------------------------------------------|-----
E|---------------------------------------------------------|-----



E|--------------------------------------------------------------
B|------------------------------------------19------17h19-------
G|--16\14--16--16b17r16--14------14--16/18------18---------18v--
D|---------------------------16---------------------------------
A|--------------------------------------------------------------
E|--------------------------------------------------------------
http://www.guitartabcreator.com
Guitar Tab Creator is intended to store guitar tab created through the tool. It currently does not support in-line text editing. Any text you place in here will be lost. If you need to comment on your tab, please use the "Tab Notes" section located below.