What Compels You

(/) Slide Up  (\) Slide Down  (h) Hammer On  (p) Pull Off  (b) Bend (r) Release (v) Vibrato

Drums play 2 measure intro.

F|-------------------------------------------------------------------
C|-------------------------------------------------------------------
G|-------------------------------------------------------------------
C|--22222222222222222222222222222222/666\----666\----666\----6-665302 x4

F|---------------------------------------------------------------- \
C|---------------------------------------------------------------- |
G|-----8-7-5-7-5-3h5----8-7-5-8h10p87h8p75h7p5----8-7-5-7-5-3h5--- |
C|--0-0-0-0-0-0-0---0~~0----------------------0~~0-0-0-0-0-0---0~~ |
| x2
F|----------------------------------------------- |
C|------------6666655555----------10101010109~~~~ |
G|--4444433333----------8888877777--------------- |
C|----------------------------------------------- /

F|-------------------------------------------------------------
C|-------------------------------------------------------------
G|-------------------------------------------------------------
C|--2--1-0-0-0-0-0-2--1-0-0-0-0-0-2--1-0-0-0-0-0-2--1-0-0-0-0-1

F|--------------------------------------------------------------
C|------------------------6-5---------------------------10-9----
G|----------------------------4-3----------------------------8-7
C|--2--1-0-0-0-0-0-2--1-0---------2--1-0-0-0-0-0-2--1-0---------

F|-------------------------------------------------------------
C|-------------------------------------------------------------
G|--8-7~~~~~8-7~~~~~3-2~~~~~8-7~~~~~8-7~~~~~3-2~~~~~3-2~~~~~~~~
C|-------------------------------------------------------------

F|-------------------------------------------------------------
C|-------------------------------------------------------------
G|-------------------------------------------------------------
C|--2--1-0-2-1-0-2--1-0-1-6-5-0-5-2--1-0-2-1-0-2--1-0-1-6-5-0-5

F|-------------------------------------------------------------
C|-------------------------------------------------------------
G|-------------------------------------------------------------
C|--6--6-6-6-6-6-6-6--6-6-6-6-6-6-5--5-5-5-5-5-5-5--5-5-5-5-5-5

F|-------------------------------------------------------------
C|-------------------------------------------------------------
G|-------------------------------------------------------------
C|--6--6-6-6-6-6-6-6--6-6-8-8-8-8-5--5-5-5-5-5-5-4--4-4-4-4-4-4

F|------------------------------------------------------------------
C|------------------------------------------------------------------
G|------------------------------------------------------------------
C|--4444444444444444331100113311001144444444444444443311001133110011 x2

F|------------------------------------------------------------------
C|------------------------------------------------------------------
G|------------------------------------------------------------------
C|--6666666666666666553322335533223366666666666666665533223355332233

F|------------------------------------------------------------------
C|------------------------------------------------------------------
G|------------------------------------------------------------------
C|--444444444444444433110011331100114444444444444444331100113311001-

F|------------------
C|------------------
G|------------------
C|--654----543----/\

F|-------------------------------------------------------------------
C|-------------------------------------------------------------------
G|-------------------------------------------------------------------
C|--22222222222222222222222222222222/666\----666\----666\----6-665302 x4

F|-------------------------------------------------------------------
C|-------------------------------------------------------------------
G|-------------------------------------------------------------------
C|--2-----------------3-----------------2-----------------8-7-5-7-5-3 x2

F|-------------------------------------------------------------------
C|-------------------------------------------------------------------
G|-------------------------------------------------------------------
C|--2-22222222222222223-33333333333333332-22222222222222228-7-5-7-5-3 x2

F|-------------------------------------------------------------------
C|-------------------------------------------------------------------
G|-------------------------------------------------------------------
C|--2~~~~~~~~~~~~~~~~~~~~~~~~~~~~~~~~~~~~~~~~~~~~~~~~~~~~~~~~~~~~~~~~
Guitar Tab Creator is intended to store guitar tab created through the tool. It currently does not support in-line text editing. Any text you place in here will be lost. If you need to comment on your tab, please use the "Tab Notes" section located below.