Tsunami

(/) Slide Up  (\) Slide Down  (h) Hammer On  (p) Pull Off  (b) Bend (r) Release (v) Vibrato


F|----------------------------------------------
C|----------------------------------------------
G|----------------------------------------------
C|--8-8887-7778-888-3-5-3-8-8887-7778-888-1-3-1- x3

F|------------------------------------------------------------------
C|------------------------------------------------------------------
G|------------------------------------------------------------------
C|--8888888877777777888888883333555588888888777777778888888833331111 x2

F|---------------------------------------------------
C|---------------------------------------------------
G|---------------------------------------------------
C|--0---------0---------000-000-0-------------------- x2 (Let second last open ring out)

F|---------------------------------------------------
C|---------------------------------------------------
G|---------------------------------------------------
C|--000-3-2-3-000-5-3-5-000-000-000-7-5-7-8-7-5h7p5-3 x4

F|-------------------------------------------
C|-------------------------------------------
G|-------------------------------------------
C|--0~~~~~~~~~~~~~~~~~~~~~~~~~~~~~~~~~~~~~~~~

F|-------------------------------------------------------------------
C|-------------------------------------------------------------------
G|--5~~~~~~~~~~~~~~~4~~~~~~~~~~~~~~~5~~~~~~~~~~~~~~~10-10-8-8-7-7-8-8
C|-------------------------------------------------------------------

F|----------------------------------------------------------------------
C|----------------------------------------------------------------------
G|--55555555888888884444444477777777555555558888888810101010888877778888
C|---------------------------------------------------------------------- x2

F|-----------------------------------------------------------------
C|-----------------------------------------------------------------
G|---------5/8~~~8--------4/7~~~7-------5/8~~~8-10101010888877778888
C|--00----0--------00----0-------00----0----------------------------- x2

F|-----------------------------------------------------------------
C|------------7~~------------5~~-----------7~~----------------------
G|---------5/8---8--------4/7---7-------5/8---8-10101010888877778888
C|--000--00--------000--00-------000--00----------------------------- x2

F|---------------------------------------------------
C|---------------------------------------------------
G|---------------------------------------------------
C|--0---------0---------000-000-0-------------------- x2 (Let second last open ring out)

F|---------------------------------------------------
C|---------------------------------------------------
G|---------------------------------------------------
C|--000-3-2-3-000-5-3-5-000-000-000-7-5-7-8-7-5h7p5-3 x4

F|----------------------------------------------
C|----------------------------------------------
G|----------------------------------------------
C|--8-8887-7778-888-3-5-3-8-8887-7778-888-1-3-1- x2



Guitar Tab Creator is intended to store guitar tab created through the tool. It currently does not support in-line text editing. Any text you place in here will be lost. If you need to comment on your tab, please use the "Tab Notes" section located below.