Tribute

(/) Slide Up  (\) Slide Down  (h) Hammer On  (p) Pull Off  (b) Bend (r) Release (v) Vibrato


F|------------------------------------------------------------------
C|------------------------------------------------------------------
G|------------------------------------------------------------------
C|--1111111111111111333333334444444411111111111111113333333366666666

F|-------------------------------------------------------------------
C|-------------------------------------------------------------------
G|-------------------------------------------------------------------
C|--111111111111111133333333444444441111111111111111333333336666-6666

F|-----------------------------------
C|-----------------------------------
G|-------3---------------3-----------
C|--100---00-3100-010100--00-4313-013 x2

F|------------------------------------------------------------------
C|------------------------------------------------------------------
G|------------------3-2---------------------------------------------
C|--0000000000000000----00000000000033333333333333331111111111111111

F|------------------------------------------------------------------
C|------------------------------------------------------------------
G|------------------3-2---------------------------------------------
C|--0000000000000000----00000000000033333333333333336666666666666666 x2

F|-----------------------------------
C|-----------------------------------
G|-------3---------------3-----------
C|--100---00-3100-010100--00-4313-013 x2

F|------------------------------------------------------------------
C|------------------------------------------------------------------
G|------------------3-2---------------------------------------------
C|--0000000000000000----00000000000033333333333333331111111111111111

F|------------------------------------------------------------------
C|------------------------------------------------------------------
G|------------------3-2---------------------------------------------
C|--0000000000000000----00000000000033333333333333336666666666666666 x2

F|------------------------------------------------------------------
C|------------------------------------------------------------------
G|------------------------------------------------------------------
C|--1111111111111111333333334444444411111111111111113333333366666666

F|-------------------------------------------------------------------
C|-------------------------------------------------------------------
G|-------------------------------------------------------------------
C|--111111111111111133333333444444441111111111111111333333336666-6666

This is a breakdown, so it's a loose template. You could play all open notes, and that's fine. Good spot for fills, slides, etc.

F|--------------------------------------------------------------
C|--------------------------------------------------------------
G|--------------------------------------------------------------
C|--000-000----000-00000000001~--000-000----000-3333333311111111

F|--------------------------------------------------------------
C|--------------------------------------------------------------
G|--------------------------------------------------------------
C|--000-000----000-00000000001~--000-000----000-3333333366666666 x2

F|------------------------------------------------------------------
C|------------------------------------------------------------------
G|------------------------------------------------------------------
C|--1111111111111111333333334444444411111111111111113333333366666666

F|-------------------------------------------------------------------
C|-------------------------------------------------------------------
G|-------------------------------------------------------------------
C|--111111111111111133333333444444441111111111111111333333336666-6666

F|-----------------------------------
C|-----------------------------------
G|-------3---------------3-----------
C|--100---00-3100-010100--00-4313-013 x2

F|--------------------------------------------------------------
C|--------------------------------------------------------------
G|--------------------------------------------------------------
C|--000-000----000-00000000001~--000-000----000-3333333311111111

F|--------------------------------------------------------------
C|--------------------------------------------------------------
G|--------------------------------------------------------------
C|--000-000----000-00000000001~--000-000----000-3333333366666666 x2

F|--------------------------------------------------------------
C|--------------------------------------------------------------
G|--------------------------------------------------------------
C|--000-000~~~~~~~~~~~~~~~~~~~~~~~~~~~~~~~~~~~~~~~~~~~~~~~~~~~~0
Guitar Tab Creator is intended to store guitar tab created through the tool. It currently does not support in-line text editing. Any text you place in here will be lost. If you need to comment on your tab, please use the "Tab Notes" section located below.