Suit and Tie Homicide

(/) Slide Up  (\) Slide Down  (h) Hammer On  (p) Pull Off  (b) Bend (r) Release (v) Vibrato


F|------------------------------------------------
C|------------------------------------------------
G|------------------------------12-10-8-10-8-7h8p7
C|--8\--------10\----------12-0---0--0-0--0-0----- x2

F|------------------------------------------------
C|------------------------------------------------
G|-----8-7h8p7----10-8h10p8-----12-10-8-10-8-7h8p7
C|--8-0-0-----10-0--0------12-0---0--0-0--0-0----- x2

F|--------------------------------------------------------------- -
C|--------------------------------------------------------------- |
G|--------------------------------------------------------------- |
C|--3~~0-0-0-000-0-0-000-0-0-3h6-0-3~~0-0-0-000-0-0-000-0-0-3h6-0 |
|
F|--------------------------------------------------------------- |
C|--------------------------------------------------------------- | x2
G|--------------------------------------------------------------- |
C|--1~~0-0-0-000-0-0-000-0-0-3h6-0-1~~0-0- |
|
F|-------------------------------------- |
C|-------------------------------------- |
G|-------------------------------------- |
C|--7-7-7-7-7-7-7-7-5-5-5-5-10-10-10-10- -

F|----------------------------------------------------------------------
C|----------------------------------------------------------------------
G|----------------------------------------------------------------------
C|--0----------------0----------------0----------------0----------------

F|--------------------------------------------------------------- -
C|--------------------------------------------------------------- |
G|--------------------------------------------------------------- |
C|--3~~0-0-0-000-0-0-000-0-0-3h6-0-3~~0-0-0-000-0-0-000-0-0-3h6-0 |
|
F|--------------------------------------------------------------- |
C|--------------------------------------------------------------- | x2
G|--------------------------------------------------------------- |
C|--1~~0-0-0-000-0-0-000-0-0-3h6-0-1~~0-0- |
|
F|-------------------------------------- |
C|-------------------------------------- |
G|-------------------------------------- |
C|--7-7-7-7-7-7-7-7-5-5-5-5-10-10-10-10- -

F|------------------------------------
C|------------------------------------
G|------------------------------------
C|--0-8-8-7-0-10-10-8-00--00--00--00-- x4

F|--------------------------------------------------------------- -
C|--------------------------------------------------------------- |
G|--------------------------------------------------------------- |
C|--3~~0-0-0-000-0-0-000-0-0-3h6-0-3~~0-0-0-000-0-0-000-0-0-3h6-0 |
|
F|--------------------------------------------------------------- |
C|--------------------------------------------------------------- | x2
G|--------------------------------------------------------------- |
C|--1~~0-0-0-000-0-0-000-0-0-3h6-0-1~~0-0- |
|
F|-------------------------------------- |
C|-------------------------------------- |
G|-------------------------------------- |
C|--7-7-7-7-7-7-7-7-5-5-5-5-10-10-10-10- -

F|----------------------------------------------------------------------
C|----------------------------------------------------------------------
G|----------------------------------------------------------------------
C|--0----------------0----------------0----------------0----------------

F|--------------------------------------------------
C|--------------------------------------------------
G|--------------------------------------------------
C|--5-555-5-555-5-555-5-555-3-333-3-333-3-333-3-333- x2

F|------------------------------------
C|------------------------------------
G|------------------------------------
C|--0-8-8-7-0-10-10-8-00--00--00--00-- x4
Guitar Tab Creator is intended to store guitar tab created through the tool. It currently does not support in-line text editing. Any text you place in here will be lost. If you need to comment on your tab, please use the "Tab Notes" section located below.