Spartan Afterparty

/-slide up   \-slide down   

F|------------------
C|------------------
G|------------------
C|--5~~~~~~~7~~~8~~~

F|--------------------------------------------------------------
C|--------------------------------------------------------------
G|--------------------------------------------------------------
C|--000-000-------000-000----/\---000-000-------000-000---6-3~~~ x2

F|-----------------------------------------------------------------
C|-----------------------------------------------------------------
G|-----------------------------------------------------------------
C|--5-5-5-5-5-5-5-5-5-5-5-5-7-7-7-7-8-8-8-8-8-8-8-8-8-8-8-8-8-8-8-8

F|-----------------------------------------------------------------------------------
C|-----------------------------------------------------------------------------------
G|-----------------------------------------------------------------------------------
C|--11-11-11-11-11-11-11-11-11-11-11-11-10-10-10-10-8-8-8-8-8-8-8-8-11-10-8-0-8-7-5-0-

F|-----------------------------------------------------------------
C|-----------------------------------------------------------------
G|-----------------------------------------------------------------
C|--5-5-5-5-5-5-5-5-5-5-5-5-7-7-7-7-8-8-8-8-8-8-8-8-8-8-8-8-8-8-8-8

F|-------------------------------------------------------------------------------------------------
C|-------------------------------------------------------------------------------------------------
G|-------------------------------------------------------------------------------------------------
C|--13-13-13-13-13-13-13-13-13-13-13-13-13-13-13-13-12-12-12-12-12-12-12-12-11-11-11-11-11-11-11-11

Short pause

F|-----------------------------------------------------
C|-----------------------------------------------------
G|------2------------2------------2------------2-------
C|--5-3---3------5-3---3------5-3---3------5-3---3-----

F|-----------------------------------------------------
C|-----------------------------------------------------
G|------2------777--101010--------2------777--101010---
C|--5-3---3-------------------5-3---3------------------ x2

F|------------------------------------------------------------------
C|--22222222222222222222222222222222--------------------------------
G|----------------------------------33333333333333333333333333333333
C|------------------------------------------------------------------

F|------------------------------------------------------------------
C|------------------------------------------------------------------
G|--222222222222222222222222----------------------------------------
C|--------------------------3333333333333333555555555555555555555555

F|------------------------------------------------------------------
C|------------------------------------------------------------------
G|------------------------------------------------------------------
C|--00-----00-----00-----00-------------00-----00-----00-----00-----

This part is chaos. Good spot to derp around.

F|-----------------------------------------------------------------------------
C|-----------------------------------------------------------------------------
G|-----------------------------------------------------------------------------
C|--543543543543543543543543543543543543321321321321321321321321321321321321321 x2

Small drum fill


F|-----------------------------------------------------------------
C|-----------------------------------------------------------------
G|-----------------------------------------------------------------
C|--5-5-5-5-5-5-5-5-5-5-5-5-7-7-7-7-8-8-8-8-8-8-8-8-8-8-8-8-8-8-8-8

F|-----------------------------------------------------------------------------------
C|-----------------------------------------------------------------------------------
G|-----------------------------------------------------------------------------------
C|--11-11-11-11-11-11-11-11-11-11-11-11-10-10-10-10-8-8-8-8-8-8-8-8-11-10-8-0-8-7-5-0-

F|-----------------------------------------------------------------
C|-----------------------------------------------------------------
G|-----------------------------------------------------------------
C|--5-5-5-5-5-5-5-5-5-5-5-5-7-7-7-7-8-8-8-8-8-8-8-8-8-8-8-8-8-8-8-8

F|-------------------------------------------------------------------------------------------------
C|-------------------------------------------------------------------------------------------------
G|-------------------------------------------------------------------------------------------------
C|--13-13-13-13-13-13-13-13-13-13-13-13-13-13-13-13-12-12-12-12-12-12-12-12-11-11-11-11-11-11-11-11

F|----------------------------------------------------------------------------------
C|----------------------------------------------------------------------------------
G|----------------------------------------------------------------------------------
C|--0~~~~~~~~~~~~~~0-3-6-8~~~~~~~~10-8-7-5~~~~~~~~~~~~~~~~0-2-3-0---0000000000000000 x2

F|-----------------------------------------------------------------------------
C|-----------------------------------------------------------------------------
G|-----------------------------------------------------------------------------
C|--543543543543543543543543543543543543321321321321321321321321321321321321321 x2

F|---------------------------------------------------------------------------------------------
C|---------------------------------------------------------------------------------------------
G|---------------------------------------------------------------------------------------------
C|--00-0-00-0-00-0-00-0-00-0-00-0-00-0-00-0-00-0-0-00-0-00-0-00-0-00-0-00-0-00-0-00-0-00-0~~~~~
Guitar Tab Creator is intended to store guitar tab created through the tool. It currently does not support in-line text editing. Any text you place in here will be lost. If you need to comment on your tab, please use the "Tab Notes" section located below.