Slavery 2.0

(/) Slide Up  (\) Slide Down  (h) Hammer On  (p) Pull Off  (b) Bend (r) Release (v) Vibrato


Bass only for intro

F|--------------------------------------
C|--------------------------------------
G|--------------------------------------
C|--2--012/8-02012----2--012/8-020120~~~ x2

Rest of band joins here

F|--------------------------------------
C|--------------------------------------
G|--------------------------------------
C|--2--012/8-02012----2--012/8-020120~~~ x2

F|--------------------------------
C|--------------------------------
G|--------------------------------
C|--11-1-1-1-1-1-11111-1-1-1-1-111

F|-------------------------------8
C|-------------------------------7
G|--------------------------------
C|--11-1-1-1-1-1-11111-1-1-1-1050- x2 (The fill is optional)

Ok, so, here's another fill I made up on the spot. It fits, but you can play what you want.

F|-----------------------------------------
C|-----------------------------------------
G|--------13~-------13~-------13~----------
C|--00-0-0----00-0-0----00-0-0----014301/8b x2

F|-----------------------------------------
C|-----------------------------------------
G|--------13~-------13~-------13~----------
C|--0000-0----0000-0----0000-0----014301/8b

F|-------------------------------------------------------
C|-------------------------------------------------------
G|--------13~-------13~-------13~------------------------
C|--0000-0----0000-0----0000-0----014301/8--9--10--11~~~~

F|---------------------------------------
C|---------------------------------------
G|---------------------------------------
C|--8-8887-77777--10-10101012-1212121212 x4

F|-----------------------------------------------------------
C|-----------------------------------------------------------
G|-----------------------------------------------------------
C|--0-0003-33333--6-6662-22222--0-0003-33333--8-8-8-8-5-5-5-5

F|-----------------------------------------------------------
C|-----------------------------------------------------------
G|-------------------------------------------------------5555
C|--0-0003-33333--6-6662-22222--0-0003-33333--8-8-8-8-5-5---- x2

F|-----------------------------------------
C|-----------------------------------------
G|--------13~-------13~-------13~----------
C|--00-0-0----00-0-0----00-0-0----014301/8b x2

F|-----------------------------------------
C|-----------------------------------------
G|--------13~-------13~-------13~----------
C|--0000-0----0000-0----0000-0----014301/8b

F|-------------------------------------------------------
C|-------------------------------------------------------
G|--------13~-------13~-------13~------------------------
C|--0000-0----0000-0----0000-0----014301/8--9--10--11~~~~

F|---------------------------------------
C|---------------------------------------
G|---------------------------------------
C|--8-8887-77777--10-10101012-1212121212 x4

F|-----------------------------------------------------------
C|-----------------------------------------------------------
G|-----------------------------------------------------------
C|--0-0003-33333--6-6662-22222--0-0003-33333--8-8-8-8-5-5-5-5

F|-----------------------------------------------------------
C|-----------------------------------------------------------
G|-------------------------------------------------------5555
C|--0-0003-33333--6-6662-22222--0-0003-33333--8-8-8-8-5-5---- x2

We kind of tacked this on, so I don't know how many gallops there are. It's like, wait for the drums to indicate when to change to the next riff. I think he does a snare thing. Oh, yeah, of course go crazy with fills and junk. I know I would.

F|-----------------------------------------------------------------
C|-----------------------------------------------------------------
G|-----------------------------------------------------------------
C|--000-000-000-000-000-000-000-000-000-000-000-000-000-000-000-000 x2

F|--------------------------------
C|--------------------------------
G|--------------------------------
C|--11-1-1-1-1-1-11111-1-1-1-1-111

F|-------------------------------8
C|-------------------------------7
G|--------------------------------
C|--11-1-1-1-1-1-11111-1-1-1-1050-

F|--------------------------------
C|--------------------------------
G|--------------------------------
C|--11-11-11-11-111111-11-11-11-11

F|--------------------------------
C|--------------------------------
G|--------------------------------
C|--11-11-11-11-111111-11-11-11-11

F|--------------------------------------
C|--------------------------------------
G|--------------------------------------
C|--2--012/8-02012----2--012/8-020120~~~ x2
Guitar Tab Creator is intended to store guitar tab created through the tool. It currently does not support in-line text editing. Any text you place in here will be lost. If you need to comment on your tab, please use the "Tab Notes" section located below.