Destroy Everything (Guitar)

(/) Slide Up  (\) Slide Down  (h) Hammer On  (p) Pull Off  (b) Bend (r) Release (v) Vibrato

D|----------------------------------
A|----------------------------------
F|----------------------------------
C|--0-------------------------------
G|--0-------------------------------
C|--0~~~~~~~~~~~~~~~~~~~~~~~~~~~~~~~


D|-------------------------------------------------------------------
A|-------------------------------------------------------------------
F|-------------------------------------------------------------------
C|-------------------------------------------------------------------
G|------------------------------------------------------4---4--5--1h4
C|--000-------------000-------------000-------------0000-000-00-00--- x2

D|-------------------------------------------------------------------
A|-------------------------------------------------------------------
F|-------------------------------------------------------------------
C|------0---1--4--3-----0---1--4--3-----0---1--4--3------------------
G|------0---1--4--3-----0---1--4--3-----0---1--4--3-----4---4--5--1h4
C|--000-0-001-04-03-000-0-001-04-03-000-0-001-04-03-0000-000-00-00--- x2

D|-------------------------
A|-------------------------
F|-------------------------
C|--4-431-3-310-4-31-3-310-
G|--4-431-3-310-4-31-3-310-
C|--4-431-3-310-4-31-3-310- x4

D|----------------------------------------------------------
A|----------------------------------------------------------
F|----------------------------------------------------------
C|--0-----------------------------0-------------------------
G|--0----------------4---4--5--1h40------------4---4--5--1h4
C|--0----~~~~~~~~0000-000-00-00---0~~~~~~~~0000-000-00-00---

D|-------------------------------------------------
A|-------------------------------------------------
F|-------------------------------------------------
C|------0------------6-----------4-3---------1-4-3-
G|------0------------6-----------4-3---------1-4-3-
C|--000-0------0000006----000000-4-3-000-000-1-4-3- x2

D|-------------------------------------------------------------------
A|-------------------------------------------------------------------
F|-------------------------------------------------------------------
C|------0---1--4--3-----0---1--4--3-----0---1--4--3------------------
G|------0---1--4--3-----0---1--4--3-----0---1--4--3-----4---4--5--1h4
C|--000-0-001-04-03-000-0-001-04-03-000-0-001-04-03-0000-000-00-00--- x2

D|-------------------------
A|-------------------------
F|-------------------------
C|--4-431-3-310-4-31-3-310-
G|--4-431-3-310-4-31-3-310-
C|--4-431-3-310-4-31-3-310- x4

D|----------------------------------------------------------
A|----------------------------------------------------------
F|----------------------------------------------------------
C|--0-----------------------------0-------------------------
G|--0----------------4---4--5--1h40------------4---4--5--1h4
C|--0----~~~~~~~~0000-000-00-00---0~~~~~~~~0000-000-00-00---

D|-------------------------------------------------
A|-------------------------------------------------
F|-------------------------------------------------
C|------0------------6-----------4-3---------1-4-3-
G|------0------------6-----------4-3---------1-4-3-
C|--000-0------0000006----000000-4-3-000-000-1-4-3- x2

D|-------------------------------------------------------------------
A|-------------------------------------------------------------------
F|-------------------------------------------------------------------
C|-------------------------------------------------------------------
G|------------------------------------------------------4---4--5--1h4
C|--000-------------000-------------000-------------0000-000-00-00--- x2

D|---------------------------------------------------------------------
A|---------------------------------------------------------------------
F|---------------------------------------------------------------------
C|------0---1--4--3-----0---1--4--3-----0---1--4--3--------------------
G|------0---1--4--3-----0---1--4--3-----0---1--4--3--------------------
C|--000-0-001-04-03-000-0-001-04-03-000-0-001-04-03--------------------

D|-------------------------------------------------------------------
A|-------------------------------------------------------------------
F|-------------------------------------------------------------------
C|------0---1--4--3-----0---1--4--3-----0---1--4--3------------------
G|------0---1--4--3-----0---1--4--3-----0---1--4--3-----4---4--5--1h4
C|--000-0-001-04-03-000-0-001-04-03-000-0-001-04-03-0000-000-00-00--- x2

D|---------------------------------
A|---------------------------------
F|---------------------------------
C|------0-------0-------0---1--4--3
G|------0-------0-------0---1--4--3
C|--000-0-00000-0-00000-0-001-04-03 x3

D|---------------------------------
A|---------------------------------
F|---------------------------------
C|------0-------0------------------
G|------0-------0-----4---4--5--1h4
C|--000-0-00000-0-0000-000-00-00---

D|--------------------------------------
A|--------------------------------------
F|--------------------------------------
C|------------------------------------0-
G|------4---4--5--1h4----4---4--5--1h40-
C|--0000-000-00-00---0000-000-00-00---0~
Guitar Tab Creator is intended to store guitar tab created through the tool. It currently does not support in-line text editing. Any text you place in here will be lost. If you need to comment on your tab, please use the "Tab Notes" section located below.