Destroy Everything

F|----------------------------------
C|----------------------------------
G|----------------------------------
C|--0~~~~~~~~~~~~~~~~~~~~~~~~~~~~~~~

F|---------------------------------------------------------------------
C|---------------------------------------------------------------------
G|------------------------------------------------------4---4--5--1h4--
C|--000-0-001-04-03-000-0-001-04-03-000-0-001-04-03-0000-000-00-00----- x4

F|-------------------------
C|-------------------------
G|-------------------------
C|--4-431-3-310-4-31-3-310- x4

F|----------------------------------------------------------
C|----------------------------------------------------------
G|-------------------4---4--5--1h4-------------4---4--5--1h4
C|--000-0~~~~~~~~0000-000-00-00---0~~~~~~~~0000-000-00-00---

F|-------------------------------------------------
C|-------------------------------------------------
G|-------------------------------------------------
C|--000-0------0000006----000000-4-3-000-000-1-4-3- x2

F|---------------------------------------------------------------------
C|---------------------------------------------------------------------
G|------------------------------------------------------4---4--5--1h4--
C|--000-0-001-04-03-000-0-001-04-03-000-0-001-04-03-0000-000-00-00----- x2

F|-------------------------
C|-------------------------
G|-------------------------
C|--4-431-3-310-4-31-3-310- x4

F|----------------------------------------------------------
C|----------------------------------------------------------
G|-------------------4---4--5--1h4-------------4---4--5--1h4
C|--000-0~~~~~~~~0000-000-00-00---0~~~~~~~~0000-000-00-00---

F|-------------------------------------------------
C|-------------------------------------------------
G|-------------------------------------------------
C|--000-0------0000006----000000-4-3-000-000-1-4-3- x2

F|---------------------------------------------------------------------
C|---------------------------------------------------------------------
G|------------------------------------------------------4---4--5--1h4--
C|--000-0-001-04-03-000-0-001-04-03-000-0-001-04-03-0000-000-00-00----- x2

Guitar plays half of riff alone

F|---------------------------------------------------------------------
C|---------------------------------------------------------------------
G|------------------------------------------------------4---4--5--1h4--
C|--000-0-001-04-03-000-0-001-04-03-000-0-001-04-03-0000-000-00-00----- x2


F|---------------------------------
C|---------------------------------
G|---------------------------------
C|--000-0-00000-0-00000-0-001-04-03 x3

F|---------------------------------
C|---------------------------------
G|--------------------4---4--5--1h4
C|--000-0-00000-0-0000-000-00-00---

F|--------------------------------------
C|--------------------------------------
G|------4---4--5--1h4----4---4--5--1h4--
C|--0000-000-00-00---0000-000-00-00---0~
Guitar Tab Creator is intended to store guitar tab created through the tool. It currently does not support in-line text editing. Any text you place in here will be lost. If you need to comment on your tab, please use the "Tab Notes" section located below.