Deer Dance


F|--------------------------------------------------------------
C|--------------------------------------------------------------
G|--------------------------------------------------------------
C|--110-110-110-1--110-110-110-1--110-110-110-1--110-110-110-1--

F|----------------------------------------------------------------
C|----------------------------------------------------------------
G|----------------------------------------------------------------
C|--1-0-1-0-1-0-1-0-1-0-1-0-1-0-1-0-1-0-1-0-1-0-1--1-0-1-0-1-0-1--

F|------------------
C|------------------
G|------------------
C|--5/8-3/7-1/5-0~~~ x6

F|----------------------------------
C|----------------------------------
G|----------------------------------
C|--55883377115533775588337711550~~~ x2

F|--------------------------------------------------------------
C|--------------------------------------------------------------
G|--------------------------------------------------------------
C|--110-110-110-1--110-110-110-1--110-110-110-1--110-110-110-1--

F|----------------------------------------------------------------
C|----------------------------------------------------------------
G|----------------------------------------------------------------
C|--1-0-1-0-1-0-1-0-1-0-1-0-1-0-1-0-1-0-1-0-1-0-1--1-0-1-0-1-0-1--

F|------------------
C|------------------
G|------------------
C|--5/8-3/7-1/5-0~~~ x6

F|----------------------------------
C|----------------------------------
G|----------------------------------
C|--55883377115533775588337711550~~~ x2

F|--------------------------------------------------------------
C|--------------------------------------------------------------
G|--------------------------------------------------------------
C|--110-110-110-1--110-110-110-1--110-110-110-1--110-110-110-1--

F|----------------------------------------------------------------
C|----------------------------------------------------------------
G|----------------------------------------------------------------
C|--1-0-1-0-1-0-1-0-1-0-1-0-1-0-1-0-1-0-1-0-1-0-1--1-0-1-0-1-0-1--

F|------------------------------------------------------------------
C|------------------------------------------------------------------
G|------------------------------------------------------------------
C|--5-5-5-5-5-5-5-5-5-5-5-5-5-5-5-5-5-5-5-5-5-5-5-5-5-5-5-5-5-5-5-5- x2

F|------------------------------------------------------------------
C|------------------------------------------------------------------
G|------------------------------------------------------------------
C|--3-3-3-3-3-3-3-3-3-3-3-3-3-3-3-3-3-3-3-3-3-3-3-3-3-3-3-3-3-3-3-3-

F|------------------------------------------------------------------
C|------------------------------------------------------------------
G|------------------------------------------------------------------
C|--5-5-5-5-5-5-5-5-5-5-5-5-5-5-5-5-5-5-5-5-5-5-5-5-5-5-5-5-5-5-5-5-

F|------------------------------------------------------------------
C|------------------------------------------------------------------
G|------------------------------------------------------------------
C|--3-3-3-3-3-3-3-3-3-3-3-3-3-3-3-3-3-3-3-3-3-3-3-3-3-3-3-3-3-3-3-3-

F|------------------------------------------------------------------
C|------------------------------------------------------------------
G|------------------------------------------------------------------
C|--5-5-5-5-5-5-5-5-5-5-5-5-5-5-5-5-5-5-5-5-5-5-5-5-5-5-5-5-5-5-5-5-

F|------------------------------------------------------------------
C|------------------------------------------------------------------
G|------------------------------------------------------------------
C|--3-3-3-3-3-3-3-3-3-3-3-3-3-3-3-3-3-3-3-3-3-3-3-3-3-3-3-3-3-3-3-3-

F|------------------------------------------------------------------
C|------------------------------------------------------------------
G|------------------------------------------------------------------
C|--5-5-5-5-5-5-5-5-5-5-5-5-5-5-5-5-5-5-5-5-5-5-5-5-5-5-5-5-5-5-5-5-

Entire band pauses and sings here.

F|--------------------------------------------------------------
C|--------------------------------------------------------------
G|--------------------------------------------------------------
C|--110-110-110-1--110-110-110-1--110-110-110-1--110-110-110-1--

F|----------------------------------------------------------------
C|----------------------------------------------------------------
G|----------------------------------------------------------------
C|--1-0-1-0-1-0-1-0-1-0-1-0-1-0-1-0-1-0-1-0-1-0-1--1-0-1-0-1-0-1--

Slows down a bit for heavy-as-fuck outro.

F|---------------------------------
C|---------------------------------
G|---------------------------------
C|--1-0-1-0-1-0-1-0-1-0-1-0-1-0-1-- x4
Guitar Tab Creator is intended to store guitar tab created through the tool. It currently does not support in-line text editing. Any text you place in here will be lost. If you need to comment on your tab, please use the "Tab Notes" section located below.