Cage Of Glass

(/) Slide Up  (\) Slide Down  (h) Hammer On  (p) Pull Off  (b) Bend (r) Release (v) Vibrato



D|--------------------------------------------------------------------
A|--------------------------------------------------------------------
F|--------------------------------------------------------------------
C|------7788----7788----778877553355----7788----7788----77881010887788
G|----55------55------55--------------55------55------55--------------
C|--00------00------00--------------00------00------00----------------

D|----------------------------------------------------------------------
A|----------------------------------------------------------------------
F|----------------------------------------------------------------------
C|------7788----7788----778877553355----7788----7788----7788101010107777
G|----55------55------55--------------55------55------55----------------
C|--00------00------00--------------00------00------00------------------ x2

D|----------------------------------------------
A|----------------------------------------------
F|----------------------------------------------
C|------991010----991010----99101012121010991010
G|----77--------77--------77--------------------
C|--00--------00--------00----------------------

D|----------------------------------------------
A|----------------------------------------------
F|----------------------------------------------
C|------991010----991010----99101014141212101099
G|----77--------77--------77--------------------
C|--00--------00--------00----------------------

D|----------------------------------------------------------------------
A|----------------------------------------------------------------------
F|----------------------------------------------------------------------
C|------7788----7788----778877553355----7788----7788----7788101010107777
G|----55------55------55--------------55------55------55----------------
C|--00------00------00--------------00------00------00------------------

D|------------------------------------------------------------------
A|------------------------------------------------------------------
F|--10101010101010101010101010/9-9-9-5-5-5-5-5-5-5-5-4-4-4-4-4-4-4-4
C|--8-8-8-8-8-8-8-8-8-8-8-8-8-/7-7-7-3-3-3-3-3-3-3-3-2-2-2-2-2-2-2-2
G|--8-8-8-8-8-8-8-8-8-8-8-8-8-/7-7-7-3-3-3-3-3-3-3-3-2-2-2-2-2-2-2-2
C|--8-8-8-8-8-8-8-8-8-8-8-8-8-/7-7-7-3-3-3-3-3-3-3-3-2-2-2-2-2-2-2-2 x4

D|--------------------------------------------------------------------
A|--------------------------------------------------------------------
F|--------------------------------------------------------------------
C|------7788----7788----778877553355----7788----7788----77881010887788
G|----55------55------55--------------55------55------55--------------
C|--00------00------00--------------00------00------00----------------

D|----------------------------------------------------------------------
A|----------------------------------------------------------------------
F|----------------------------------------------------------------------
C|------7788----7788----778877553355----7788----7788----7788101010107777
G|----55------55------55--------------55------55------55----------------
C|--00------00------00--------------00------00------00------------------

D|----------------------------------------------
A|----------------------------------------------
F|----------------------------------------------
C|------991010----991010----99101012121010991010
G|----77--------77--------77--------------------
C|--00--------00--------00----------------------

D|----------------------------------------------
A|----------------------------------------------
F|----------------------------------------------
C|------991010----991010----99101014141212101099
G|----77--------77--------77--------------------
C|--00--------00--------00----------------------

D|----------------------------------------------------------------------
A|----------------------------------------------------------------------
F|----------------------------------------------------------------------
C|------7788----7788----778877553355----7788----7788----7788101010107777
G|----55------55------55--------------55------55------55----------------
C|--00------00------00--------------00------00------00------------------

D|------------------------------------------------------------------
A|------------------------------------------------------------------
F|--10101010101010101010101010/9-9-9-5-5-5-5-5-5-5-5-4-4-4-4-4-4-4-4
C|--8-8-8-8-8-8-8-8-8-8-8-8-8-/7-7-7-3-3-3-3-3-3-3-3-2-2-2-2-2-2-2-2
G|--8-8-8-8-8-8-8-8-8-8-8-8-8-/7-7-7-3-3-3-3-3-3-3-3-2-2-2-2-2-2-2-2
C|--8-8-8-8-8-8-8-8-8-8-8-8-8-/7-7-7-3-3-3-3-3-3-3-3-2-2-2-2-2-2-2-2 x4

D|------------------------------------------------------------------
A|------------------------------------------------------------------
F|------------------------------------------------------------------
C|------------------------------------------------------------------
G|----55778877553322------------------55778877553322----------------
C|--00--------------005588773377552200--------------0055887755332233 x3

D|---------------------------------------------------
A|---------------------------------------------------
F|---------------------------------------------------
C|--0-------------8-----7-----0-------------3-----2--
G|--0-------------8-----7-----0-------------3-----2--
C|--0-------------8-----7-----0-------------3-----2-- x2

D|------------------------------------------------------
A|------------------------------------------------------
F|------------------------------------------------------
C|--0-------------8-----7-7-770-------------3-3-332-2-22
G|--0-------------8-----7-7-770-------------3-3-332-2-22
C|--0-0-00000-0-0-8-8-887-7-770-0-00000-0-0-3-3-332-2-22 x2

D|------------------------------------------------------------------
A|------------------------------------------------------------------
F|--10101010101010101010101010/9-9-9-5-5-5-5-5-5-5-5-4-4-4-4-4-4-4-4
C|--8-8-8-8-8-8-8-8-8-8-8-8-8-/7-7-7-3-3-3-3-3-3-3-3-2-2-2-2-2-2-2-2
G|--8-8-8-8-8-8-8-8-8-8-8-8-8-/7-7-7-3-3-3-3-3-3-3-3-2-2-2-2-2-2-2-2
C|--8-8-8-8-8-8-8-8-8-8-8-8-8-/7-7-7-3-3-3-3-3-3-3-3-2-2-2-2-2-2-2-2 x4

D|--------------------------------------------------------------------
A|--------------------------------------------------------------------
F|--------------------------------------------------------------------
C|------7788----7788----778877553355----7788----7788----77881010887788
G|----55------55------55--------------55------55------55--------------
C|--00------00------00--------------00------00------00----------------

D|----------------------------------------------------------------------
A|----------------------------------------------------------------------
F|----------------------------------------------------------------------
C|------7788----7788----778877553355----7788----7788----7788101010107777
G|----55------55------55--------------55------55------55----------------
C|--00------00------00--------------00------00------00------------------
Guitar Tab Creator is intended to store guitar tab created through the tool. It currently does not support in-line text editing. Any text you place in here will be lost. If you need to comment on your tab, please use the "Tab Notes" section located below.