All Heart

(/) Slide Up  (\) Slide Down  (h) Hammer On  (p) Pull Off  (b) Bend (r) Release (v) Vibrato

F|---------------------------------------------------------------
C|---------------------------------------------------------------
G|---------------------------------------------------------------
C|--000-000--------000-000--------000-000--------000-000-1h4-1h3- x8

F|---------------------------------------------------------------
C|---------------------------------------------------------------
G|---------7-8-10-8-------7-5-3-5--------7-8-10-8----------------
C|--000-000--------000-000--------000-000--------000-000-10-8-7-8 x2

F|---------------------------------------------------------------
C|---------------------------------------------------------------
G|--------------------------------------------------------------- x2
C|--10~~~~~~~~~~8~~~~~~10~~~~~~\-00-000-00-000-00-000-00-1h4-1h3-

F|---------------------------------------------------------------
C|---------------------------------------------------------------
G|---------------------------------------------------------------
C|--000-000--------000-000--------000-000--------000-000-1h4-1h3- x2

F|---------------------------------------------------------------
C|---------------------------------------------------------------
G|---------7-8-10-8-------7-5-3-5--------7-8-10-8----------------
C|--000-000--------000-000--------000-000--------000-000-10-8-7-8 x2

F|---------------------------------------------------------------
C|---------------------------------------------------------------
G|--------------------------------------------------------------- x2
C|--10~~~~~~~~~~8~~~~~~10~~~~~~\-00-000-00-000-00-000-00-1h4-1h3-

F|-----------------------------------------------------------
C|-----------------------------------------------------------
G|-----------------------------------------------------------
C|--0-3~~~~~~~~~~0-2~~~~~~~~~~9-7~~~~~~~~~~5-7~~~~~~3-5~~~~~~ x about 8 or so times

The gallops and speed change, but these are the same notes played til the end.

F|---------------------------------------
C|---------------------------------------
G|---------------------------------------
C|--7-7-7-7-7-7-7-7-/10-10-10-10-\5-5-5-5 x16
Guitar Tab Creator is intended to store guitar tab created through the tool. It currently does not support in-line text editing. Any text you place in here will be lost. If you need to comment on your tab, please use the "Tab Notes" section located below.