The Affair

(/) Slide Up  (\) Slide Down  (h) Hammer On  (p) Pull Off  (b) Bend (r) Release (v) Vibrato



F|-----------------------------------
C|-----------------------------------
G|-----------------------------------
C|--0~~~~----------------------------


F|-----------------------------------
C|-----------------------------------
G|-----------------------------------
C|--0---0---0---0---0---0---0---0----


F|-----------------------------------
C|-----------------------------------
G|-----------------------------------
C|--0----------------------------/--\


F|----------------------------------------------------------------
C|----------------------------------------------------------------
G|----------------------------------------------------------------
C|--000-0-000-0-000-000-0-000-0-000-000-0-000-0-000-0-7-7-7-7-6-7- x2


F|---------------------------
C|---------------------------
G|---------------------------
C|--000----000----000---000-1 x4


F|-----------------------------------------------------
C|-----------------------------------------------------
G|---------777666-------777666-------777666555---------
C|--000-000------000-000------000-000---------555777333

F|-----------------------------------------------------
C|-----------------------------------------------------
G|---------777666-------777666-------777666555---------
C|--000-000------000-000------000-000---------55577710b

F|-----------------------------------------------------
C|-----------------------------------------------------
G|---------777666-------777666-------777666555---------
C|--0000000------0000000------0000000---------555777333

F|-----------------------------------------------------
C|-----------------------------------------------------
G|---------777666-------777666-------777666555---------
C|--0000000------0000000------0000000------------------

I'm not too sure about this part. I never learned the original bass line, so I just play this. No one's said anything, and it seems to work fine, so yeah.

F|-------------------------------------------------------------
C|-------------------------------------------------------------
G|---------7-5-9~----------10-9-7~---------5-3-7~----3p2---2p0-
C|--0-0-0-0--------0-0-0-0---------0-0-0-0-------0-0----0-0---- x2

F|-------------------------------------------------------------
C|-------------------------------------------------------------
G|---------7-5-9-9---------10-9-7-7---------5-3-7-7---3p2---2p0
C|--0-0-0-0--------0-0-0-0----------0-0-0-0--------0-0---0-0---

F|-------------------------------------------------------------
C|-------------------------------------------------------------
G|---------7-5-9-9---------10-9-7-7---------5-3-7-7------------
C|--0-0-0-0--------0-0-0-0----------0-0-0-0--------0-0---0-0---


F|-----------------------------------------------------
C|-----------------------------------------------------
G|---------777666-------777666-------777666555---------
C|--000-000------000-000------000-000---------555777333

F|-----------------------------------------------------
C|-----------------------------------------------------
G|---------777666-------777666-------777666555---------
C|--000-000------000-000------000-000---------55577710b

F|-----------------------------------------------------
C|-----------------------------------------------------
G|---------777666-------777666-------777666555---------
C|--0000000------0000000------0000000---------555777333

F|-----------------------------------------------------
C|-----------------------------------------------------
G|---------777666-------777666-------777666555---------
C|--0000000------0000000------0000000---------------10b


F|-------------------------------------------------------------
C|-------------------------------------------------------------
G|---------7-5-9~----------10-9-7~---------5-3-7~----3p2---2p0-
C|--0-0-0-0--------0-0-0-0---------0-0-0-0-------0-0----0-0---- x2

F|-------------------------------------------------------------
C|-------------------------------------------------------------
G|---------7-5-9-9---------10-9-7-7---------5-3-7-7---3p2---2p0
C|--0-0-0-0--------0-0-0-0----------0-0-0-0--------0-0---0-0---

F|-------------------------------------------------------------
C|-------------------------------------------------------------
G|---------7-5-9-9---------10-9-7-7---------5-3-7-7------------
C|--0-0-0-0--------0-0-0-0----------0-0-0-0--------0-0---0-0---


F|---------------------------------------------------------------
C|---------------------------------------------------------------
G|---------------------------------------------------------------
C|--1--1--1-1\----111\----11-1-1-1-1--1--1-1\----111\----11-1-1-1 Repeat until end of song.

Voila!




Guitar Tab Creator is intended to store guitar tab created through the tool. It currently does not support in-line text editing. Any text you place in here will be lost. If you need to comment on your tab, please use the "Tab Notes" section located below.