uprisal solo

(/) Slide Up  (\) Slide Down  (h) Hammer On  (p) Pull Off  (b) Bend (r) Release (v) Vibrato
E|------------------------|------------------------|-------------------------|-------
B|------------------------|------------------------|-------------------------|-------
G|----------7---4---------|----------7---4---------|-------7p4---------------|-------
D|-------4----------5---4-|-------4----------5---4-|-----4-----5-4-----------|-----4-
A|----5-------------------|----5-------------------|---5-----------7-5-4-----|---5---
E|-7----------------------|-7----------------------|-7-------------------7-5-|-7-----



E|-----------------|-------------------------|---------------------------------------------------|-
B|-----------------|-------------------------|---------------------------------------------------|-
G|-7p4-------------|-------7p4---------------|---------------------------------------------------|-
D|-----5-4---------|-----4-----5-4-----------|---------------------------------------------------|-
A|---------7-5-4---|---5-----------7-5-4-----|-------5-----------5-----------7-----------7-------|-
E|---------------5-|-7-------------------7-5-|-0-3-7---7-3-0-3-7---7-3-0-5-9---9-5-0-5-9---9-5-0-|-



E|--------------------------------------------------|--------------------------
B|--------------------------------------------------|--------------------------
G|-------7p4---------------------7p4----------------|------7---6---------------
D|-----4-----5-4---------------4---------------5--4-|-5-------------9----------
A|---5-----------7-5-4-------5-------5-4-----7------|-5------------------------
E|-7-------------------7-5-7-------------7-5--------|-3-----------------7------



E|----------------------------------|-------------------------------------------
B|----------------------------------|--------------------------------11/13--11--
G|-7p6h7p6---------12--11----7--7-6-|----------6p7h6-----11/12--11--------------
D|---------9p7-9--------------------|-9----7p9--------9-------------------------
A|----------------------------------|-------------------------------------------
E|----------------------------------|-------------------------------------------



E|-15-14-|-19p12p10----------19p12p10----------19p12p10----------------15h19p15-|-
B|-------|----------17p12p10----------17p12p10----------17p12p10h12/17----------|-
G|-------|----------------------------------------------------------------------|-
D|-------|----------------------------------------------------------------------|-
A|-------|----------------------------------------------------------------------|-
E|-------|----------------------------------------------------------------------|-



E|------------------|---------------------------------|-----------------------------------------
B|-17---------------|---------------------------------|-----------------------------------------
G|----16\9----------|---------------------------------|-----------------------------------------
D|---------10-------|---------------------------------|-10-9---12-10---9-7---10-9---7-6---3-2---
A|------------12-11-|-12-11-0-12-11-0-14-12-0-14-12-0-|------0-------0-----0------0-----0-----0-
E|------------------|---------------------------------|-----------------------------------------



E|-----------------------------------------------|-
B|-----------------------------------------------|-
G|-----------------------------------------------|-
D|-3-2---3-2-------------------2-3-2-------------|-
A|-----0-----5-3-2-------2-3-5-------5-3-2-------|-
E|-----------------5-3-5-------------------5-3-1-|-
http://www.guitartabcreator.com
Guitar Tab Creator is intended to store guitar tab created through the tool. It currently does not support in-line text editing. Any text you place in here will be lost. If you need to comment on your tab, please use the "Tab Notes" section located below.