Uprisal break down

(/) Slide Up  (\) Slide Down  (h) Hammer On  (p) Pull Off  (b) Bend (r) Release (v) Vibrato


E|--------------------|---------------------------------------|-----
B|--------------------|---------------------------------------|-----
G|--------------------|---------------------------------------|-----
D|--2----2----2----2--|--2----2----------9p7------------------|-----
A|--2----2----2----2--|--2----2---------------8--7\5----------|-----
E|--0----0----0----0--|--0----0----0--0---------------6--5\3--|-----



E|-----------------------------------------------------------|----------------------------------
B|-----------------------------------------------------------|----------------------------------
G|-9-9-12-9-9-9-15-9-9-9-12-9-9-9-15-9-9-9-12-9-9-9-15-9-9-9-|-15-12-9----15-12-9----15-12-9----
D|-----------------------------------------------------------|---------12---------12---------12-
A|-----------------------------------------------------------|----------------------------------
E|-----------------------------------------------------------|----------------------------------



E|------------|-
B|------------|-
G|-15-12-9----|-
D|---------12-|-
A|------------|-
E|------------|-



E|---------------------------------|-
B|---------------------------------|-
G|---------------------------------|-
D|-----------------9p7-------------|-
A|---------------------8-7\5-------|-
E|-0-0-0-0-0-0-0-0-----------6-5\3-|-
http://www.guitartabcreator.com
Guitar Tab Creator is intended to store guitar tab created through the tool. It currently does not support in-line text editing. Any text you place in here will be lost. If you need to comment on your tab, please use the "Tab Notes" section located below.