thrash

(/) Slide Up  (\) Slide Down  (h) Hammer On  (p) Pull Off  (b) Bend (r) Release (v) Vibrato
E|-------------------------------------------------------------------------------
B|-------------------------------------------------------------------------------
G|-------------------------------------------------------------------------------
D|-9-------9-------9-7-9-10-------10-------10-------10-12-10-9-------9-------9---
A|-7-------7-------7-5-7-8--------8--------8--------8--10-8--7-------7-------7---
E|---0-0-0---0-0-0----------0-0-0----0-0-0----0-0-0------------0-0-0---0-0-0-0---



E|---------------------------------------|-|-------------------------|-|-
B|---------------------------------------|-|-------------------------|-|-
G|---------------------------------------|-|-------------------------|-|-
D|-------9-7-----------------------------|-|-9-----------9-------7-9-|-|-
A|-------7-5-9-8-------8-------7-------5-|-|-7-6-5-------7-----9-5-7-|-|-
E|-0-0-0-----7-6-0-0-0-6-0-0-0-5-0-0-0-3-|-|-------7-5-7---0-0-7-----|-|-



E|-------------------------------------------|-----------------|-|-
B|-------------------------------------------|-----------------|-|-
G|-------------------------------------------|-----------------|-|-
D|-9-----------9-------7-9-------------------|-6---6-6-7---7-7-|-|-
A|-7-6-5-------7-----9-5-7-6-5-------8-----8-|-7---7-7-8---8-8-|-|-
E|-------7-5-7---0-0-7---------7-5-7-6-0-0-6-|---0-------0-----|-|-



E|-------------------|-----------------|-----------------------|---
B|-------------------|-----------------|-----------------------|---
G|-------------------|-----------------|-----------------------|---
D|-------------------|-----------------|-------------5---------|---
A|---------5h7p5-----|-------5h7p5-----|-------5h7p5---7-5-----|---
E|-0-0-5-6-------6-0-|-0-5-6-------6-0-|-0-5-6-------------5-0-|---



E|-------------------------------|-|----
B|-------------------------------|-|----
G|-------------------------------|-|----
D|-------------------------------|-|----
A|-------5h7p5---5---5---5---7---|-|----
E|-0-5-6-------6-3-0-3-0-3-0-5-0-|-|----



E|--------------|--------------|-|-
B|--------------|--------------|-|-
G|--------------|--------------|-|-
D|-----7-9-1--1-|-----7-9------|-|-
A|-7-8-5-7-1--1-|-7-8-5-7-8--8-|-|-
E|-5-6-----0--0-|-5-6-----6--6-|-|-
http://www.guitartabcreator.com
Guitar Tab Creator is intended to store guitar tab created through the tool. It currently does not support in-line text editing. Any text you place in here will be lost. If you need to comment on your tab, please use the "Tab Notes" section located below.