skinned alive

(/) Slide Up  (\) Slide Down  (h) Hammer On  (p) Pull Off  (b) Bend (r) Release (v) Vibrato
E|-|---------------|-|-------------------------|-|-
B|-|-3---6---2---5-|-|-------------------------|-|-
G|-|---------------|-|-12--12-15--15-11--11-14-|-|-
D|-|---------------|-|-------------------------|-|-
A|-|-2---5---1---4-|-|-10--10-13--13-9---9--12-|-|-
E|-|-3---6---2---5-|-|-------------------------|-|-



E|-------|-------------------------|---------------------------------|---
B|-------|-------------------------|---------------------------------|---
G|-------|-------------------------|---------------------------------|---
D|-2--3--|-3p2---------3p2---------|-3p2---------3p2---------------3-|---
A|-2--3--|-----3p2---------3p2-----|-----3p2---------3p2---------2---|---
E|-0--1--|---------1p0---------1p0-|---------1p0---------1p0-0-1-----|---



E|-------------------|-----------------------------------|-
B|-------------------|-----------------------------------|-
G|-------------------|-----------------------------------|-
D|-3p2---------------|-3p2---------3p2---------------3---|-
A|-----3p2-----------|-----3p2---------3p2---------2---2-|-
E|---------1p0--0--0-|---------1p0---------1p0-0-1-------|-



E|------------------------------|------------------------------------|-----
B|------------------------------|------------------------------------|-----
G|------------------------------|------------------------------------|-----
D|------------------------------|------------------------------------|-----
A|--1--1--1----1--1--1----2-----|--1--1--1----1--1--1--13p10--12p10--|-----
E|--2--2--2----2--2--2----3--0--|--2--2--2----2--2--2----------------|-----



E|---------------12-12-12-12-|-
B|---------------12-12-12-12-|-
G|---------------12-12-12-12-|-
D|---------------12-12-12-12-|-
A|-1-1-1--1-1-1--------------|-
E|-2-2-2--2-2-2--------------|-



E|--------------------------|---------------12-12-12-12-|-------------------------|-
B|--------------------------|---------------12-12-12-12-|-------------------------|-
G|--------------------------|---------------12-12-12-12-|-------------------------|-
D|--------------------------|---------------12-12-12-12-|-------------------------|-
A|-1-1-1--1-1-1-13p10-12p10-|-1-1-1--1-1-1--------------|-1-1-1--1-1-1--11p9-10p9-|-
E|-2-2-2--2-2-2-------------|-2-2-2--2-2-2--------------|-2-2-2--2-2-2------------|-



E|---------------7-7-7-7-7-|-
B|---------------7-7-7-7-7-|-
G|---------------7-7-7-7-7-|-
D|---------------7-7-7-7-7-|-
A|-1-1-1--1-1-1------------|-
E|-2-2-2--2-2-2------------|-



E|-----------------------------------------------|-------------------------------|-
B|-----------------------------------------------|-------------------------------|-
G|-----------------------------------------------|-------------------------------|-
D|-----------------------------------------------|----------6-5------------6-5---|-
A|-----------8-7------------8-7------------8-7---|-3--3-3-3-----4-3--3-3-3-----4-|-
E|-5--5-5-5------6-5--5-5-5-----6-5--5-5-5-----6-|-------------------------------|-



E|------------------------------------------------|--------------
B|------------------------------------------------|--------------
G|------------------------------------------------|--------8-7---
D|-----------6-5-------------6-5------------6-5---|------9-----8-
A|-3--3-3-3------4-3--3-3-3------4-3--3-3-3-----4-|-7-10---------
E|------------------------------------------------|--------------
http://www.guitartabcreator.com
Guitar Tab Creator is intended to store guitar tab created through the tool. It currently does not support in-line text editing. Any text you place in here will be lost. If you need to comment on your tab, please use the "Tab Notes" section located below.