The Phaneron solos

[code]
(/) Slide Up (\) Slide Down (h) Hammer On (p) Pull Off (b) Bend (r) Release (v) Vibrato
E|---------------------------------------------------------|----
B|----9/10----9h10----10\6----5----5/6----5h6--------------|----
G|-----------------------------------------------2----1----|----
D|---------------------------------------------------------|----
A|---------------------------------------------------------|----
E|---------------------------------------------------------|----



E|-5-4-0-5-4-0-5-4-0-8-5-4-0-8-5-4-0-8-5-4-0-8-5-4-0-10/12-0-10/13-0-10/12-0-10/13-0-12h13-
B|-----------------------------------------------------------------------------------------
G|-----------------------------------------------------------------------------------------
D|-----------------------------------------------------------------------------------------
A|-----------------------------------------------------------------------------------------
E|-----------------------------------------------------------------------------------------



E|--|--|---------------------------------------------------------------
B|--|--|---------------------------------------------------------------
G|--|--|---------------------------------------------------------------
D|--|--|--2--------1------2--1-----------------------------------------
A|--|--|------------------------2--1----2------2----1------2--1--------
E|--|--|---------------------------------------------------------2--0--



E|--------------------------------------------------------------
B|--------------------------------------------------------------
G|-------------------4---5p4-----7p4-7p4------5p4---------------
D|-------------6-7-7---------7-6---------7-6------7-6-4-6-7-----
A|-------5-7-8--------------------------------------------------
E|-5-7-8----------------------------------------------------5---



E|-|-|-|-----------------------------------------------------------------------------------
B|-|-|-|-----------------------------------------------------------------------------------
G|-|-|-|-----------------------------------------------------------------------------------
D|-|-|-|-----------------------------------------------------------------------------------
A|-|-|-|-------------------------------------------------------------------8-7-5---8-7-5---
E|-|-|-|-0-0-0-1p0-0-3p0-0-0-0-0-0-0-0-6p0-0-5p0-0-0-0-0-0-0-0-1p0-0-3p0-0-------7-------5-



E|-------------------------------12p7---8p5---8p5---8p5---10p7---10p7---13p10----12-10-8-10-8-7-8-7-
B|------------------------12p8--------8-----7-----6-----7------9------8-------11--------------------
G|-----------------12p9--------9--------------------------------------------------------------------
D|-------9-14p9---------9---------------------------------------------------------------------------
A|----10--------10----------------------------------------------------------------------------------
E|-12-----------------------------------------------------------------------------------------------



E|-5-7-5-4-8-7-5-7-5-4-8-7-5-7-5-4-8-7-5-7-5-4-8p5-----------|-
B|-------------------------------------------------6---------|-
G|---------------------------------------------------5-------|-
D|-----------------------------------------------------6-----|-
A|-------------------------------------------------------7---|-
E|---------------------------------------------------------5-|-



E|-|-------------------------------------------|-
B|-|-------------------------------------------|-
G|-|--------------5--7--7b9--r7-7b9--7b9r7p5h7-|-
D|-|-------2-5/7-------------------------------|-
A|-|----3--------------------------------------|-
E|-|-5-----------------------------------------|-



E|----------------7------------9/12-------------|-
B|-10-----9--10------10--9-----------9h10p9p7h9-|-
G|--------------------------7-------------------|-
D|----------------------------------------------|-
A|----------------------------------------------|-
E|----------------------------------------------|-



E|-----------------------------------|--|-----------------------------------
B|-----------------------------------|--|-----------------------------------
G|-----------------------------2--1--|--|--------------------2--1-----5--4--
D|--------------------3--2--0--------|--|-----------3--2--0--------2--------
A|-----------5--3--2-----------------|--|--5--3--2--------------------------
E|--5--4--0--------------------------|--|-----------------------------------



E|-8p5-------5h8-|-|---------------|---------|-|---------
B|-----6---6-----|-|---------------|---------|-|---------
G|-------5-------|-|---------------|-7p5p4-5-|-|---------
D|---------------|-|-9p6-----------|---------|-|-9p7p6-7-
A|---------------|-|-----7---------|---------|-|---------
E|---------------|-|-------6-4\2-1-|---------|-|---------



E|-------------------------|-|---------------|-8-0-7-0-0-5-0-0-3-0-0-2-0-0-3-0-0-5/12-
B|-4-0-0-5-0-0-7-0-0-8-0-0-|-|---------------|----------------------------------------
G|-------------------------|-|---------------|----------------------------------------
D|-------------------------|-|-3-2-----------|----------------------------------------
A|-------------------------|-|-----3-2-------|----------------------------------------
E|-------------------------|-|---------3-1-0-|----------------------------------------



E|-|-------------------------------------------------|-
B|-|-7/8-8-8-8-8-8-10-10-10-10-10-10-8\4-4-4-4-4-4-5-|-
G|-|-------------------------------------------------|-
D|-|-------------------------------------------------|-
A|-|-------------------------------------------------|-
E|-|-------------------------------------------------|-
[/code]
[url]http://www.guitartabcreator.com[/url]
Guitar Tab Creator is intended to store guitar tab created through the tool. It currently does not support in-line text editing. Any text you place in here will be lost. If you need to comment on your tab, please use the "Tab Notes" section located below.