new song

(/) Slide Up  (\) Slide Down  (h) Hammer On  (p) Pull Off  (b) Bend (r) Release (v) Vibrato

Stave 1:

E|------------------------------------|---------------------
B|------------------------------------|---------------------
G|----------------4--3--2--3--4----9--|---------4--3--2--3--
D|--2------5------4--3--2--3--4----9--|--5------4--3--2--3--
A|--2------5------2--1--0--1--2----7--|--5------2--1--0--1--
E|--0------3--------------------------|--3------------------

Stave 2:

E|--------------------------|----------------------------|---------------------------|--
B|--------------------------|----------------------------|---------------------------|--
G|--------------------------|----------------------------|---------------------------|--
D|--------------------------|----------------------------|---------------------------|--
A|------------2h3p2--1h2p1--|--------------2h3p2--1h2p1--|-------5--4-------7--------|--
E|----0----0----------------|--0--0--0--0----------------|--2/3--------3/5-----5--0--|--

Stave 3:

E|--
B|--
G|--
D|--
A|--
E|--

http://www.guitartabcreator.com
Guitar Tab Creator is intended to store guitar tab created through the tool. It currently does not support in-line text editing. Any text you place in here will be lost. If you need to comment on your tab, please use the "Tab Notes" section located below.