Comets

(/) Slide Up  (\) Slide Down  (h) Hammer On  (p) Pull Off  (b) Bend (r) Release (v) Vibrato


E|-----------7-----------------7-----------------9-----------------9--------
B|--------0-----0-----------0-----0-----------0-----0-----------0-----0-----
G|-----7-----------7-----7-----------7-----9-----------9-----9-----------9--
D|--5-----------------5-----------------7-----------------7-----------------
A|--------------------------------------------------------------------------
E|--------------------------------------------------------------------------



E|------------12-------------------10-------------------9-------------------7---------
B|---------0------0-------------0------0-------------0-----0-------------0-----0------
G|-----11------------11-----11------------11-----11-----------11-----11-----------11--
D|--9--------------------9--------------------9-------------------9-------------------
A|------------------------------------------------------------------------------------
E|------------------------------------------------------------------------------------
http://www.guitartabcreator.com
Guitar Tab Creator is intended to store guitar tab created through the tool. It currently does not support in-line text editing. Any text you place in here will be lost. If you need to comment on your tab, please use the "Tab Notes" section located below.