Reminisce

(/) Slide Up  (\) Slide Down  (h) Hammer On  (p) Pull Off  (b) Bend (r) Release (v) Vibrato


E|--0--3--1--0--|------------------------------------------------------------------------------|--
B|--1--3--1--0--|------------------------------------------------------------------------------|--
G|--2--0--2--0--|------------------------------------------------------------------------------|--
D|--2--0--3--1--|--0h2-----2p0--2--0--0h2-----2p0--2--0--0h2-----2p0--2--0--0h2--2--2p0--2--2--|--
A|--0--2--3--1--|-------0--------------------------------------------------------2-------------|--
E|-----3--1--0--|--------------------------3------------------1------------------0-------------|--



E|-----------------------------|------------------------------|-----
B|-----------------------------|------------------------------|-----
G|-----------------------------|------------------------------|-----
D|--7--5--3--2-----------------|--7--5--3--2------------------|-----
A|--7--5--3--2-----------------|--7--5--3--2--7--8--10--8--7--|-----
E|--5--3--1--0--0--1--3--1--0--|--5--3--1--0------------------|-----



E|----------------------------------------------------------------------
B|----------------------------------------------------------------------
G|--12/14--14--14--14--12--10--10--10--10--10--10--9--9--10--12--10--9--
D|----------------------------------------------------------------------
A|----------------------------------------------------------------------
E|----------------------------------------------------------------------
http://www.guitartabcreator.com
Guitar Tab Creator is intended to store guitar tab created through the tool. It currently does not support in-line text editing. Any text you place in here will be lost. If you need to comment on your tab, please use the "Tab Notes" section located below.