The lies

(/) Slide Up  (\) Slide Down  (h) Hammer On  (p) Pull Off  (b) Bend (r) Release (v) Vibrato


E|-----------------------|-----------------------|-----------------------|--------------------------
B|-----------------------|-----------------------|-----------------------|--------------------------
G|-----------0-----------|-----------0-----------|-----------2-----------|-----------0--------------
D|--------4-----4--------|--------0-----0--------|--------0-----0--------|--------2-----2--2--------
A|-----2-----------2-----|-----2-----------2-----|-----0-----------0-----|-----2--------------2-----
E|--0-----------------0--|--3-----------------3--|--2-----------------2--|--0--------------------0--



E|-----------------------------------------------------------0--
B|-----------------------------------------------------------0--
G|------------------------------------------------0--0h2--0--0--
D|-------------0--4--0--------0----------------0-------------2--
A|--0h2-----2--------------0-----0h2--------0----------------2--
E|-------0--------------3-------------0--2-------------------0--



E|--------------------------------
B|--------------------------------
G|--------------------------------
D|--------0--------0--2--2--4--2--
A|-----2--------0-----2--2--2--2--
E|--3--------2--------0--0--0--0--
http://www.guitartabcreator.com
Guitar Tab Creator is intended to store guitar tab created through the tool. It currently does not support in-line text editing. Any text you place in here will be lost. If you need to comment on your tab, please use the "Tab Notes" section located below.