A Departure

(/) Slide Up  (\) Slide Down  (h) Hammer On  (p) Pull Off  (b) Bend (r) Release (v) Vibrato


E|------------------------|---------------------------------------
B|------------------------|---------------------------------------
G|------------------------|--7h9--------9--10--7h9-----10p9p7--9--
D|--0h2--2--3--0h2--0--2--|-------7--7--------------7-------------
A|--0-0--0--0--0-0--0--0--|---------------------------------------
E|------------------------|---------------------------------------



E|--------------------------------------------
B|--------------------------------------------
G|--------------------------------------------
D|--5--3--2--5--2--3--2--5--3--2--5--2--3--2--
A|--------------------------------------------
E|--------------------------------------------



E|---------------------------------
B|---------------------------------
G|--12--10--9--12--9--10--9--------
D|---------------------------------
A|---------------------------------
E|---------------------------------
http://www.guitartabcreator.com
Guitar Tab Creator is intended to store guitar tab created through the tool. It currently does not support in-line text editing. Any text you place in here will be lost. If you need to comment on your tab, please use the "Tab Notes" section located below.