Arising

(/) Slide Up  (\) Slide Down  (h) Hammer On  (p) Pull Off  (b) Bend (r) Release (v) Vibrato


E|-----------------------------------------------------------
B|-----------------------------------------------------------
G|----------------9------12--11----------------9------9------
D|-----9--11--12-----11-------------9--11--12-----11-----11--
A|--9----------------------------9---------------------------
E|-----------------------------------------------------------



E|-----------------------------------------------------
B|-----------------------------------------------------
G|---------------7-----10--9---------------7-----7--9--
D|-----7--9--10-----9------------7--9--10-----9--------
A|--7-------------------------7------------------------
E|-----------------------------------------------------



E|--------------------|------------------
B|--------------------|------------------
G|--------------------|------------------
D|--4-4--4--4-4--4----|--0h2--2--0h2--2--
A|--0h2--2--0h2--2----|--0-0--0--0-0--0--
E|--------------------|------------------
http://www.guitartabcreator.com
Guitar Tab Creator is intended to store guitar tab created through the tool. It currently does not support in-line text editing. Any text you place in here will be lost. If you need to comment on your tab, please use the "Tab Notes" section located below.