New Tap Song

(/) Slide Up  (\) Slide Down  (h) Hammer On  (p) Pull Off  (b) Bend (r) Release (v) Vibrato
E|----------------------------------------------
B|----------------------------------------------
G|--------------9p6-----7p6---------------------
D|--12\11p4---------------------7p4-----9p4-----
A|-----------7-------5-------5-------7-------5--
E|----------------------------------------------



E|---------------------------------------------
B|---------------------------------------------
G|--------------9p6-----7p6--------------------
D|--12\11p4---------------------7/9p4-----9p4--
A|-----------7-------5-------5---------7-------
E|---------------------------------------------



E|--------------------------------------------------
B|--------5------------------------5--------7p5-----
G|--7--6-----6--6--6h7--6----7--6-----6--6-------6--
D|--4--4--4--4--4-------4----4--4--4--4--4-------4--
A|--4--4--4--4--4-------4----4--4--4--4--4-------4--
E|--4--4--4--4--4-------4----4--4--4--4--4-------4--



E|------------------------------------------------------
B|------------------------------------------------------
G|--6--4--9--------------------6--4--9---------------4--
D|--2--2--7--6p0--4------------2--2--7--6p0--4----------
A|--2--2--7----------5p0-------2--2--7----------5p0-----
E|--2--2--7---------------4----2--2--7------------------



E|--------------------------------------------------------
B|--------------------------------------------------------
G|--------------------------------------------------------
D|--9----12----7--------9----12----14--------6----7----4--
A|--7----9-----4--------7----9-----11--------2----4----0--
E|--7----9-----4--------7----9-----11--------2----4----0--



E|---------------------------------------------------------------------------
B|--14p9h10-----------14p9h10-----------12p9h10-----------15p9h10--14p9------
G|-----------14p9h11-----------14p9h11-----------13p9h11-----------------11--
D|---------------------------------------------------------------------------
A|---------------------------------------------------------------------------
E|---------------------------------------------------------------------------



E|-------------------------------------------------------------------------------------
B|-------------------------------------------------------------------------------------
G|-----------9p6---7-7-----------9p6-----------------9p6-----------------9p6---6-6-6-6-
D|-12\11p4-------------12\11p4---------9-9-12\11p4---------7-7-12\11p4---------4-4-4-4-
A|---------7-----5-------------7-----5-------------7-----5-------------7-----5-4-4-4-4-
E|-----------------------------------------------------------------------------4-4-4-4-



E|----------------------------
B|----------------------------
G|--7------11------12------6--
D|--4------7-------9-------2--
A|--4------7-------9-------2--
E|--4------7-------9-------2--



E|-------------------------------------------------------
B|-------------------------------------------------------
G|--7-------------6-------------7------9-----------------
D|--4------7------2------6------4------7------9------12--
A|--0------4------0------2------0------0------7------9---
E|--0------4------0------2------0------0------7------9---
http://www.guitartabcreator.com
Guitar Tab Creator is intended to store guitar tab created through the tool. It currently does not support in-line text editing. Any text you place in here will be lost. If you need to comment on your tab, please use the "Tab Notes" section located below.