Oneiric REradiate

(/) Slide Up  (\) Slide Down  (h) Hammer On  (p) Pull Off  (b) Bend (r) Release (v) Vibrato
E|------------------------------------------
B|-----3-------5-------9---------10--10h12--
G|--2-----4/6-----4/7-----9--11-------------
D|------------------------------------------
A|------------------------------------------
D|------------------------------------------



E|----------------------------------------------------------------------------------------
B|-----------3---------5h7-5-----------------10p9-----------------10-12-------------------
G|-----2---2-----6---------------6---6h7------------11---------11------------9----9h11----
D|-2h4---4---------7-4---------7---7-----7--------0----11---12------------11---11------11-
A|----------------------------------------------------------------------------------------
D|----------------------------------------------------------------------------------------



E|--------------------------
B|--------------------------
G|--6------6------4---------
D|--4------7------6------6--
A|-----------------------7--
D|--------------------------



E|------------------------------------------------------------------------
B|------------------------------0--------------------------------------0--
G|--6------6--------------------2----------6------6--------------------2--
D|--4------7------6------6------4----------4------7------6------6------4--
A|--4------4------4------7------0----------4------4------4------7------0--
D|--4------4------4------4-----------------4------4------4------4---------



E|---------------------
B|---------------------
G|--6------9-------11--
D|--7------11------12--
A|--9------12------14--
D|---------------------



E|---------------------
B|---------------------
G|--6------9-------11--
D|---------------------
A|--9------12------14--
D|---------------------
http://www.guitartabcreator.com
Guitar Tab Creator is intended to store guitar tab created through the tool. It currently does not support in-line text editing. Any text you place in here will be lost. If you need to comment on your tab, please use the "Tab Notes" section located below.