New Song

(/) Slide Up  (\) Slide Down  (h) Hammer On  (p) Pull Off  (b) Bend (r) Release (v) Vibrato
E|------------------------------------------------------------------------------
B|------------------------------------------------------------------------------
G|--6-------------4----------------------6---------------4------6---------------
D|---------7-------------6------4---------------7----------------------4--------
A|------------------------------------------------------------------------------
D|--4------4------2------2------0--------4------4--------2------2------0--------



E|-----------------------------------0---------------------------------------0--
B|-----------------------------------0---------------------------------------0--
G|--6-------------4-------------2----2------6-------------4------6------2----2--
D|--4------7------2------6------4----4------4------7------2------2------4----4--
A|--4------4------2------2------0-----------4------4------2------2------0-------
D|--4------4------2------2------0-----------4------4------2------2------0-------



E|-----------------------------------------------
B|-----------------------------------------------
G|--9----11----------------------14----------14--
D|--7----7-----12----11----14----12----14----12--
A|--7----7-----9-----9-----12----12----12----12--
D|--7----7-----9-----9-----12----12----12----12--



E|-------------------------
B|-------------------------
G|--6---------4----6----9--
D|--4----7----2----2----0--
A|--4----4----2----2----0--
D|--4----4----2----2----0--



E|-------------------------------------
B|-----------------------------7-------
G|--9-----9-----9-----9-----9-----6h7--
D|-----0-----0-----0-----0-------------
A|-------------------------------------
D|-------------------------------------



E|--------------------------------------------------------------------------
B|--------------------------------------------------------------------------
G|--11--11--11--------------14--14--14--------------------------------------
D|--------------12--12--12--------------11--11--11--------------------------
A|--------------------------------------------------12--12--12--14--14--14--
D|--------------------------------------------------------------------------



E|----------------------------------
B|----------------------------------
G|--7----6----4--------7----6----9--
D|--4----2----2--------4----2----7--
A|--4----2----2--------4----2----7--
D|--4----2----2--------4----2----7--



E|------------------------------------------------------------------
B|------------------------------------------------------------------
G|--12----14----9----11----4----6----6----7----9----11----12----14--
D|--9-----12----7----9-----2----2----4----4----7----7-----9-----12--
A|--9-----12----7----9-----2----2----4----4----7----7-----9-----12--
D|--9-----12----7----9-----2----2----4----4----7----7-----9-----12--



E|---------------------------------
B|---------------------------------
G|-7--6--4----7--9--6--4-4--4------
D|-4--2--2----4--7--2--2-2--2------
A|-4--2--2----4--7--2--2-2--2------
D|-4--2--2----4--7--2--2-2--2------



E|------------------------------------------------
B|----15--15--15--15--15--15--15--15--15--15--15--
G|----14--14--14--14--14--14--14--14--14--14--14--
D|----0---0---0---0---0---0---0---0---0---0---0---
A|------------------------------------------------
D|------------------------------------------------
http://www.guitartabcreator.com
Guitar Tab Creator is intended to store guitar tab created through the tool. It currently does not support in-line text editing. Any text you place in here will be lost. If you need to comment on your tab, please use the "Tab Notes" section located below.